Fogelberg Dan - Longer Chords & Tabs

 

Longer Chords & Tabs

Fogelberg Dan Chords & Tabs

Version: 3 Type: Tab 0 ratings
1 star 2 stars 3 stars 4 stars 5 stars
comments

Longer Tab

   
#----------------------------------PLEASE NOTE---------------------------------#
#This file is the author's own work and represents their interpretation of the #
#song. You may only use this file for private study, scholarship, or research. #
#------------------------------------------------------------------------------##
   This should get you started...this version uses "double dropped D tuning",
which just means you tune the top and bottom strings (E's) down to D.
Fogelberg uses an open G tuning , which is almost the same (you just also tune
the A down to G....sorry if you know all this already). I had already figured
out this version before I realized he used open G, but it's close enough
that I never bothered relearning it.
 
Enjoy,
 
Hank Mallison
whm@physics.att.com
 
 
  D |-0-----0-------0|-------0-2---0--|-0-----0-------0|-0-2-4s5-----5--|
  B |---0-----1------|-3---------0--1s3---0-----1------|-0-------5---5--|
  G |-----0-----0----|---0------------|-----0-----0----|-0---------0-0--|
  D |-------------2--|-----0----------|-------------2--|----------------|
  A |---------0------|-2-------3---0--|---------0------|-2-----3-----3--|
  D |-5--------------|----------------|-5--------------|----------------|
 
                                        Bb    Am         G
  |-0-----0-------0|-------0-2---0--|---------------------------0-----0---|
  |---0-----1------|-3---------0---1|-3-1---0H1-------------------1---3---|
  |-----0-----0----|---0------------|-----3-------2-0H2---0---0-----0---0-|
  |-------------2--|-----0----------|-----------2-------0---0-----2---4---|
  |---------0------|-2-------3---0--|-1-----0-------0---------------------|
  |-5--------------|----------------|---------------------5---------------|
 
 
 
 
 
 
 
    LONGER -- Dan Fogelberg
 
    Here's the bridge...don't forget E strings are dropped to D
       (although you don't really use them in this part..you could
        play this in standard tuning)
 
    Repeat this part 3 times:
 
       I'll    bring   fire in the winter   (1)
       You'll  send  showers in the spring  (2)
       We'll   fly  thru the falls & summers (3)
 
       F       C        Ab/Eb     Bb/F
    |--------------------------------------------------|
    |--1-------1--------4-----4-s-6--------------------|
    |------2-------0--------5---------7----------------|
    |----3---3---2---2----6---------8---8--------------|
    |--3-------3--------6---------8--------------------|
    |--------------------------------------------------|
 
 
  with love  on our     wings                   |--(start verse again)
 
    |---------------------------------|-------------0--|-------0--------|
    |-3-----3--3-----3--3-----3--3--3-5-3-------------0|-1--------------|
    |-----5--------5--------5---------|---5-4-2-0------|---0------------|
    |---5--------4--------5-----------|-----------0----|-----2----------|
    |-0--------0--------0--------0----|----------------|-0--------------|
    |---------------------------------|---------5------|----------------|
                                    ^         ^
                                    |---------|
                                    Fast run be-
                                    tween chords


From: chief764@aol.com (Chief764)

  Longer By Dan Fogelberg (open "G" tuning)

  Intro
d:-----------0-----------0|-----------0-----------0|-----------0----------
-0|
B:--------------1---------|--3-----------5---------|--0-----------1-------
--|
G:--------0-----------0---|--------0--------0--0---|--------0-----------0-
--|
D:-----0-----------2------|-----4------------------|-----0-----------2----
--|
G:--0-----------2---------|--4-----------5---------|--0-----------2-------
--|
D:------------------------|------------------------|----------------------
--|




[ Tab from: http://www.guitartabs.cc/tabs/f/fogelberg_dan/longer_tab_ver_3.html ]
d:-----------5------------|-----------0-----------0|--------------------0-
--|
B:--3--5--7-----------5---|--0-----------1---------|--3--5--3-----5-------
--|
G:-----------------5-----5|--------0-----------0---|-----------0-----0----
-0|
D:--------------5---------|-----0-----------2------|----------------------
--|
G:--4--------5------------|--0-----------2---------|--4-----------5-------
--|
D:------------------------|------------------------|----------------------
--|


                                                      


d:--0-----------------------|------------------------|
B:-----1-----1--------------|-----------0--1-----3---|
G:--------3-----------0H2--0|--------0--------0-----0|
D:-----------------0--------|-----0--------2-----4---|
G:--3-----------2-----------|--0---------------------|
D:--------------------------|------------------------|




    Verse X3
d:--0--------0-----------0|-----------0-----------0|
B:--------------1---------|--3-----------5---------|
G:--------0-----------0---|--------0--------0--0---|
D:-----0-----------2------|-----4------------------|
G:--0-----------2---------|--4-----------5---------|
D:------------------------|------------------------|
          Longer than...




d:--0-----------------------|------------------------|
B:-----1-----1--------------|-----------0--1-----3---|
G:--------3-----------0H2--0|--------0--------0-----0|
D:-----------------0--------|-----0--------2-----4---|
G:--3-----------2-----------|--0---------------------|
D:--------------------------|------------------------|
    I've been...


    2nd time
d:--0-----------------------|--------------5-----5---|
B:-----1-----1--------------|-----------0------------|
G:--------3-----------0H2--0|--------0--------0-----0|
D:-----------------0--------|-----0------------------|
G:--3-----------2-----------|--0---------------------|
D:--------------------------|------------------------|
    I've been...



    Chorus x3
d:-----------5------------|-----------3------------|--------0-----------0-
--|
B:------------------------|------------------------|----------------------
--|
G:--------5-----------5--7|--------3--------3------|-----5-----5-----5----
-5|
D:-----7-----------5------|-----5--------------3---|--5-----------4-------
--|
G:--5-----------5---------|--3-----------3--------3|----------------------
--|
D:------------------------|------------------------|----------------------
--|
    I'll        bring        fire in the winters      With lo-------ve on
our



                            x3
d:--------0-----------0--|-----------0-----------0|-----------0-----------
0|
B:-----------------------|--0-----------1---------|--3-----------5--------
-|
G:-----5-----5-----5----5|--------0-----------0---|--------0--------0--0--
-|
D:--3-----------4--------|-----0-----------2------|-----4-----------------
-|
G:-----------------------|--0-----------2---------|--4-----------5--------
-|
D:-----------------------|------------------------|-----------------------
-|
    wings                      Through the years...




d:--0-----------------------|--------------0---------|
B:-----1-----1--------------|-----------0------------|
G:--------3-----------0H2--0|--------0--------0------|
D:-----------------0--------|-----0-----------------0|
G:--3-----------2-----------|--0-----------------2---|
D:--------------------------|------------------------|
    I'll be...




d:--0-----------------------|--------------5-----5---|
B:-----1-----1--------------|-----------0------------|
G:--------3-----------0H2--0|--------0--------0-----0|
D:-----------------0--------|-----0------------------|
G:--3-----------2-----------|--0---------------------|
D:--------------------------|------------------------|
    I Am...


    End
d:--0-----------------------|-------------5|
B:-----1-----1--------------|--------------|
G:--------3-----------0H2--0|--------2/4---|
D:-----------------0--------|-----0--------|
G:--3-----------2-----------|--0-----------|
D:--------------------------|--------------|


Comments