Fogelberg Dan - Longer Chords & Tabs

 

Longer Chords & Tabs

Fogelberg Dan Chords & Tabs

Version: 2 Type: Tab 0 ratings
1 star 2 stars 3 stars 4 stars 5 stars
comments

Longer Tab

   
d:-----------0-----------0|-----------0-----------0|-----------0-----------0|
B:--------------1---------|--3-----------5---------|--0-----------1---------|
G:--------0-----------0---|--------0--------0--0---|--------0-----------0---|
D:-----0-----------2------|-----4------------------|-----0-----------2------|
G:--0-----------2---------|--4-----------5---------|--0-----------2---------|
D:------------------------|------------------------|------------------------|





d:-----------5------------|-----------0-----------0|--------------------0---|
B:--3--5--7-----------5---|--0-----------1---------|--3--5--3-----5---------|
G:-----------------5-----5|--------0-----------0---|-----------0-----0-----0|
D:--------------5---------|-----0-----------2------|------------------------|
G:--4--------5------------|--0-----------2---------|--4-----------5---------|
D:------------------------|------------------------|------------------------|


                                                      


d:--0-----------------------|------------------------|
B:-----1-----1--------------|-----------0--1-----3---|
G:--------3-----------0H2--0|--------0--------0-----0|
D:-----------------0--------|-----0--------2-----4---|
G:--3-----------2-----------|--0---------------------|
D:--------------------------|------------------------|




    Verse X3
d:--0--------0-----------0|-----------0-----------0|
B:--------------1---------|--3-----------5---------|
G:--------0-----------0---|--------0--------0--0---|
D:-----0-----------2------|-----4------------------|
G:--0-----------2---------|--4-----------5---------|
D:------------------------|------------------------|
          Longer than...




d:--0-----------------------|------------------------|
B:-----1-----1--------------|-----------0--1-----3---|
G:--------3-----------0H2--0|--------0--------0-----0|
D:-----------------0--------|-----0--------2-----4---|
G:--3-----------2-----------|--0---------------------|
D:--------------------------|------------------------|
    I've been...

[ Tab from: http://www.guitartabs.cc/tabs/f/fogelberg_dan/longer_tab_ver_2.html ]
    2nd time
d:--0-----------------------|--------------5-----5---|
B:-----1-----1--------------|-----------0------------|
G:--------3-----------0H2--0|--------0--------0-----0|
D:-----------------0--------|-----0------------------|
G:--3-----------2-----------|--0---------------------|
D:--------------------------|------------------------|
    I've been...



    Chorus x3
d:-----------5------------|-----------3------------|--------0-----------0---|
B:------------------------|------------------------|------------------------|
G:--------5-----------5--7|--------3--------3------|-----5-----5-----5-----5|
D:-----7-----------5------|-----5--------------3---|--5-----------4---------|
G:--5-----------5---------|--3-----------3--------3|------------------------|
D:------------------------|------------------------|------------------------|
    I'll        bring        fire in the winters      With lo-------ve on
our



                            x3
d:--------0-----------0--|-----------0-----------0|-----------0-----------0|
B:-----------------------|--0-----------1---------|--3-----------5---------|
G:-----5-----5-----5----5|--------0-----------0---|--------0--------0--0---|
D:--3-----------4--------|-----0-----------2------|-----4------------------|
G:-----------------------|--0-----------2---------|--4-----------5---------|
D:-----------------------|------------------------|------------------------|
    wings                      Through the years...




d:--0-----------------------|--------------0---------|
B:-----1-----1--------------|-----------0------------|
G:--------3-----------0H2--0|--------0--------0------|
D:-----------------0--------|-----0-----------------0|
G:--3-----------2-----------|--0-----------------2---|
D:--------------------------|------------------------|
    I'll be...




d:--0-----------------------|--------------5-----5---|
B:-----1-----1--------------|-----------0------------|
G:--------3-----------0H2--0|--------0--------0-----0|
D:-----------------0--------|-----0------------------|
G:--3-----------2-----------|--0---------------------|
D:--------------------------|------------------------|
    I am...


    End
d:--0-----------------------|-------------5|
B:-----1-----1--------------|--------------|
G:--------3-----------0H2--0|--------2/4---|
D:-----------------0--------|-----0--------|
G:--3-----------2-----------|--0-----------|
D:--------------------------|--------------|

Comments