Fobia - Veneno Vil Chords & Tabs

 

Veneno Vil Chords & Tabs

Fobia Chords & Tabs

Version: 1 Type: Bass Tab 0 ratings
1 star 2 stars 3 stars 4 stars 5 stars
comments

Veneno Vil Bass Tab

artista:fobia
canción:veneno vil
album:desconocido
transcribed by cha!
tabbed by trpelonchaspunk


                                 "VENENO VIL"


Esta cancion tiene el Bajo mas sencillo que te puedes imaginar! =)

Intro
|------------------|
|------------------|
|------4---2-------|
|--2---------------|

Verso
|-------------|       |-------------|
|-------------|4x     |----------2--|4x
|-----4---2---|       |--0---4------|
|-2-----------|       |-------------|
[ Tab from: http://www.guitartabs.cc/tabs/f/fobia/veneno_vil_btab.html ]
Choro
|--------------|                       |---------------------------|
|--------------| 6x                    |---------------------------|
|--------------|  luego sigue esto --> |-2-2-2-2------5-5-5-5-5-5--|
|-2-2-/-5-5-5--|                       |---------------------------| *tocalo todo 2 veces*

Requinto
|----------------------------------------------------|
|----------------------------------------------------|
|----------------------------------------------------|
|--222222222---555555555--4h5-5---4h5-5---4h5-5------|

|--------------------------------------------------------------|
|--------------------------------------------------------------|
|--------------555555555--4h5-4h5-4h5--/12-12-12-12-12-12-12\--|
|--222222222---------------------------------------------------|
     El Reqiunto entero se repite dos veces

Eso es toda la cancion, despues del requinto se repite todo basicamente, Que disfruten!
soy oscar o trpelonchaspunk mandenme sus mails a orta_bass@hotmail.com
Comments