Fobia - Hoy Tengo Miedo Chords & Tabs

 

Hoy Tengo Miedo Chords & Tabs

Fobia Chords & Tabs

Version: 1 Type: Bass Tab

Hoy Tengo Miedo Bass Tab

Fobia
"Hoy tengo miedo"

intro & verso:

4.--------------------------------------------------------------|
3.--------------------------------------------------------------|
2.--5-5-5-5-7-7-7-4--4-4-4-4-4-4-3-3-3-3-1-1-1-0--0-0-0-0-0-0-0-|
1.--------------------------------------------------------------|

despues de eso:

4.--------------------------------------------------------------------|
3.--------------------------------------------------------------------|
2.--3-3-3-3-3-3-3-3-3-3-3-3-3-3-3-3-3-5-5-5-5-5-5-5-5-7-7-7-7-7-7-7-7-|
1.--------------------------------------------------------------------|
    "me digo no seas tonto, no seas..."

4.-------------------------|
3.-------------------------|
2.-3-3-3-3-3-3-3-3-3-3-3-3-|
1.-------------------------|

 coro:
[ Tab from: http://www.guitartabs.cc/tabs/f/fobia/hoy_tengo_miedo_btab.html ]
4.----------------------------------------------------------|
3.----------------------------------------------------------|
2.--5-5-5-5-5-5-5-5-5-5-5-5-5-5-7-7-7-7-7-7-7-7-7-7-7-7-7-7-|
1.----------------------------------------------------------|

4.---------------------------------------------------------|
3.---------------------------------------------------------|
2.-5-5-5-5-5-5-5-5-5-5-5-5-5-5-3-3-3-3-3-3-3-3-3-3-3-3-3-3-|
1.---------------------------------------------------------|
                   estos dos se tocan 4 veces..

despues otro verso solo que no es cantado y lo que le sigue...
y despues otro coro... luego otro vrso no cantado... y ahi se
acaba con esto..

2.-5-------------------|
mmm pues... no es la 100% correcta version... pero esta bastante bien... apoco no?

by palos (elpalos_@hotmail.com)