Fo The Smack Magnet - High Maintenance Chords & Tabs

 

High Maintenance Chords & Tabs

Fo The Smack Magnet Chords & Tabs

Version: 1 Type: Bass Tab 0 ratings
1 star 2 stars 3 stars 4 stars 5 stars
comments

High Maintenance Bass Tab

   
F.O. The Smack Magnet, straight outta NJ, a smaller band that has a punk/ska/fun
sound. give them a listen. http://www.purevolume.com/fothesmackmagnet

High Maintenance.

  Verse
G: ----------------------------------------|
D: -----2-------4---------9-7-5-3 (9-9-9-9-| instead only before bridge)
A: -2-5-----4-7----------------------------|
E: 3------5-------7-7-7-7------------------|
[ Tab from: http://www.guitartabs.cc/tabs/f/fo_the_smack_magnet/high_maintenance_btab.html ]
  Pre-Chorus
G: --------------------------------------------------|
D: --------------------------------------------------|
A: -------------------------------------------6-8-10-|
E: 3-----5-----7-----9-----3-----5-----7-----9-------|

  Chorus
G: --------------------------------|
D: --------------------------------|
A: --------------------------------|
E: 3-3-3-3-5-5-5-5-7-7-7-7-9-9-9-9-|

  Bridge
G: --------------------------------|
D: --------------------------------|
A: ----2-4-----6-4-----2-4---------|
E: 3-3-----5-5-----3-3-----3-3-5-5-|

Verse     : 6x
Pre-Chorus: 1x
Chorus    : 4x
Verse     : 6x
Pre-chorus: 1x
Chorus    : 4x
Verse     : 2x
Bridge    : 4x
Pre-Chorus: 1x
Chorus    : 4x
Comments