Fm Static - Hey Now Chords & Tabs

 

Hey Now Chords & Tabs

Fm Static Chords & Tabs

Version: 2 Type: Tab 0 ratings
1 star 2 stars 3 stars 4 stars 5 stars
comments

Hey Now Tab

   
Hey Now(hidden track)about 6:35 in to track 11
by FM Static
Tabbed By: JLARSON AKA GOOK

Standard Tunning                               /=Slide Up
                                               \=Slide Down
                                               H=Hammer-On
Intro Riff                                     x=mute string

e|--------------------------------------------|
B|--------------------------------------------|
G|--------------------------------------------|
D|---------5/7--7--7\9--7---------------------|
A|-5-5-9-5----------------5-9-5--9/10--10-9-9-|
E|--------------------------------------------|

e|--------------------------------------------|
B|--------------------------------------------|
G|--------------------------------------------|
D|---------5/7--7--7/9--7---------------------|
A|-5-5-9-5----------------5-9-5--9H10--9H10--9|
E|--------------------------------------------|


Verse (also played in backgroud in the intro)
[ Tab from: http://www.guitartabs.cc/tabs/f/fm_static/hey_now_tab_ver_2.html ]
  
e|---------------|
B|---------------|
G|-7---7---7-----|
D|-7---7---7---7-|
A|-5---4---x---7-|
E|---------7---5-|
                                                             D-5-
Pre-Chorus: same chords palm muted. 2nd time through play a  A-5- the end.
                                                             E-3-
Chorus

e|---------------|
B|---------------|
G|-7-------------|
D|-7---4---9---5-|
A|-5---4---9---5-|
E|-----2---7---3-|

Chorus Ending

e|------------------------------|
B|------------------------------|
G|-------------7--7--7----------|
D|-5--5--7--7--7--7--7--7--5--7-|
A|-5--5--7--7--5--4--x--7--5--7-|
E|-3--3--5--5--------7--5--3--5-|

Bridge

e|---------------|
B|---------------|
G|-7-------------|
D|-7---4---9---7-|
A|-5---4---9---7-|
E|-----2---7---5-|

Order:
------
Intro
Verse(x8)
Pre-Chorus(x2)
Chorus(x2)
Chorus End
Bridge(x2)
Verse(x2)
Pre-Chorus(x4)
Chorus(x2)
Chorus End
Bridge(x2)
Chorus
Bridge(x4)
Thats it!
this song is awesome me and my best friend call it the cute song hehe. ENJOY
Comments