Fm Static - Definitely Maybe Chords & Tabs

 

Definitely Maybe Chords & Tabs

Fm Static Chords & Tabs

Version: 2 Type: Tab 0 ratings
1 star 2 stars 3 stars 4 stars 5 stars
comments

Definitely Maybe Tab

   
Definitely Mabey - Fm Static
-------------------------------------------------------------------------------
Tabbed by:mmm...guitar
Email:

Tuning:Normal

| /  slide up
| \  slide down
| h  hammer-on
| p  pull-off
| ~  vibrato
| +  harmonic
| x  Mute note

 Intro:

e|-------------------------------------------------------------------------|
B|-------------------------------------------------------------------------|
G|--2----2----2----2-------------------------------------------------------|
D|-1-1--1-1--1-1--2-2---------X6 Times-------------------------------------|
A|-----0-------------------------------------------------------------------|
E|0---------0----2---------------------------------------------------------|

  Next Riff
  
e|-------------------------------------------------------------------------|
B|-------------------------------------------------------------------------|
G|99999--------------------------------------------------------------------|
D|99999--99999------------------77777-----------X2 Times-------------------|
A|77777--99999--11-11-11-11-11--77777--------------------------------------|
E|-------77777--9--9--9--9--9---55555--------------------------------------|

   Chorus 
e|-------------------------------------------------------------------------|
B|-------------------------------------------------------------------------|
G|-------44------666666-----22222------------X2----------------------------|
D|22-----44------666666-----22222------------------------------------------|
A|22-----22------444444-----00000-------------------------------------------
E|00-----------------------------------------------------------------------|

Verse

e|-------------------------------------------------------------------------|
B|-------------------------------------------------------------------------|
G|---22----22----22--------2222--------------------------------------------|
D|22-22-22-22-22-22--4444--2222-------X2Times------------------------------|
A|22-00-22-00-22-00--4444--0000--------------------------------------------|
E|00----00----00-----2222--------------------------------------------------|

Chorus
[ Tab from: http://www.guitartabs.cc/tabs/f/fm_static/definitely_maybe_tab_ver_2.html ]
e|-------------------------------------------------------------------------|
B|-------------------------------------------------------------------------|
G|-------444444-666666-222222----------------------------------------------|
D|222222-444444-666666-222222--------------X2Times-------------------------|
A|222222-222222-444444-000000----------------------------------------------|
E|000000-------------------------------------------------------------------|

Verse 2

e|-------------------------------------------------------------------------|
B|-------------------------------------------------------------------------|
G|-------444444-666666-222222----------------------------------------------|
D|222222-444444-666666-222222--------------X2Times-------------------------|
A|222222-222222-444444-000000----------------------------------------------|
E|000000-------------------------------------------------------------------|
PMxxxxxx xxxxxx xxxxxx xxxxxx
		Then

e|-------------------------------------------------------------------------|
B|-------------------------------------------------------------------------|
G|-------444444-666666-222222----------------------------------------------|
D|222222-444444-666666-222222--------------X2Times-------------------------|
A|222222-222222-444444-000000----------------------------------------------|
E|000000-------------------------------------------------------------------|
PMxxxxx  xxxxxx xxxx   xxxxxx 

Chorus

e|-------------------------------------------------------------------------|
B|-------------------------------------------------------------------------|
G|-------44------666666-----22222------------X2Times-----------------------|
D|22-----44------666666-----22222------------------------------------------|
A|22-----22------444444-----00000-------------------------------------------
E|00-----------------------------------------------------------------------|

Outro
e|-------------------------------------------------------------------------|
B|-------------------------------------------------------------------------|
G|-------444444-666666-222222----------------------------------------------|
D|222222-444444-666666-222222--------------X4Times-------------------------|
A|222222-222222-444444-000000----------------------------------------------|
E|000000-------------------------------------------------------------------|
Comments