Fm Static - Definitely Maybe Chords & Tabs

 

Definitely Maybe Chords & Tabs

Fm Static Chords & Tabs

Version: 1 Type: Tab 0 ratings
1 star 2 stars 3 stars 4 stars 5 stars
comments

Definitely Maybe Tab

Artist: FM Static
Tab: Guitar
Song: Definitely Maybe
Tuning: Standard

Intro
|---------------------------------||
|---------------------------------||
|-----1-------1------1-------2----||
|---2---2---2---2--2---2---2---2--|| 6X
|---------0-----------------------||
|-0---------------0------2--------||

Verse/Pre-Chorus
|-------------------------||
|-------------------------||
|-------4~-----6~---------||
|-2~----4~-----6~-----7~--|| 2X
|-2~----2~-----4~-----7~--|| 
|-0~------------------5~--||

Chorus 1
|--------------------------------------------------------------------------|
|--------------------------------------------------------------------------|
|--------4-4--------------------4-4-4-4-4-4-4-4----------------------------|
|-2-2----4-4----2-2-2-2-2-2-2-2-4-4-4-4-4-4-4-4-2-2-2-2-2-2-2-2-7-7-7-7-7--|
|-2-2----2-2----2-2-2-2-2-2-2-2-2-2-2-2-2-2-2-2-2-2-2-2-2-2-2-2-7-7-7-7-7--|
|-0-0-----------0-0-0-0-0-0-0-0-0---------------0-0-0-0-0-0-0-0-5-5-5-5-5--|

Continued
|------------------------------------------------------------------------||
|------------------------------------------------------------------------||
|-----------------------4-4-4-4-4-4-4-4----------------------------------||
|-7-7-7-2-2-2-2-2-2-2-2-4-4-4-4-4-4-4-4-2-2-2-2-2-2-2-2-7-7-7-7-7-7-7-7--||
|-7-7-7-2-2-2-2-2-2-2-2-2-2-2-2-2-2-2-2-2-2-2-2-2-2-2-2-7-7-7-7-7-7-7-7--||
|-5-5-5-0-0-0-0-0-0-0-0-----------------0-0-0-0-0-0-0-0-5-5-5-5-5-5-5-5--||
[ Tab from: http://www.guitartabs.cc/tabs/f/fm_static/definitely_maybe_tab.html ]
Verse
|---------------------||
|---------------------||
|------4-4------------||
|-2-2--4-4--2-2--7-7--|| 4X
|-2-2--2-2--2-2--7-7--||
|-0-0-------0-0--5-5--||

Chorus 2
|------------------------------------------------------------------||
|------------------------------------------------------------------||
|-----------------4-4-4-4-4-4-4-4-6-6-6-6-6-6-6-6------------------||
|-2-2-2-2-2-2-2-2-4-4-4-4-4-4-4-4-6-6-6-6-6-6-6-6-7-7-7-7-7-7-7-7--|| 2X
|-2-2-2-2-2-2-2-2-2-2-2-2-2-2-2-2-4-4-4-4-4-4-4-4-7-7-7-7-7-7-7-7--||
|-0-0-0-0-0-0-0-0---------------------------------5-5-5-5-5-5-5-5--||

Verse Again ( Palm Muted At Some Parts..you figure it out..figure out rhythm to..)

Chorus 3
|-------------------------------------------------------------------------|
|-------------------------------------------------------------------------|
|--------4-4----6-6-6-6-6-6-6-6------------------------4-4----6-6-6-6-6-6-|
|-2-2----4-4----6-6-6-6-6-6-6-6-7-7-7-7-7-7-7-7-2-2----4-4----6-6-6-6-6-6-|
|-2-2----2-2----4-4-4-4-4-4-4-4-7-7-7-7-7-7-7-7-2-2----2-2----4-4-4-4-4-4-|
|-0-0---------------------------5-5-5-5-5-5-5-5-0-0-----------------------|

Continued
|----------------------||
|----------------------||
|-6-6------------------||
|-6-6-7-7-7-7-7-7-7-7--||
|-4-4-7-7-7-7-7-7-7-7--||
|-----5-5-5-5-5-5-5-5--||

Outro (Same As Chorus 2)

End On
|------||
|------||
|------||
|-2-2--||
|-2-2--||
|-0-0--||

any comments feel free to e-mail me at spidiotkes124@earthlink.net
Comments