Flys - Take U There Chords & Tabs

 

Take U There Chords & Tabs

Flys Chords & Tabs

Version: 1 Type: Tab 0 ratings
1 star 2 stars 3 stars 4 stars 5 stars
comments

Take U There Tab

Author/Artist: The Flys
Title: Take U There
Transcribed by: Chris Arnold
Email: Chris2831@aol.com

Cool song.

Intro/Verses (repeat):
E----------------------------------------------|
B----------------------------------------------|
G----------------------------------------------|
D-13--13--10-10-10--11-11-11--6-6-6-6-6-6-6-6--|
A-13--13---8--8--8---9--9--9--6-6-6-6-6-6-6-6--|
E-11--11---8--8--8---9--9--9--4-4-4-4-4-4-4-4--|
[ Tab from: http://www.guitartabs.cc/tabs/f/flys/take_u_there_tab.html ]
Chorus (repeat):
E----------------------------------------------|
B----------------------------------------------|
G----------------------------------------------|
D-13--13--10-10-10--11-11-11--8-8-8-8-8-8-8-8--|
A-13--13---8--8--8---9--9--9--8-8-8-8-8-8-8-8--|
E-11--11---8--8--8---9--9--9--6-6-6-6-6-6-6-6--|

Background Thing:
E--------------------------------|
B--------------------------------|
G--------------------------------|
D--------------------------------|
A--------------------------------|
E-9--11--15--19---9--11--15--19--|

"I don't know where I'm going..." (repeat):
E------------------------------------------|
B------------------------------------------|
G------------------------------------------|
D-13-13-13--11-11-11-11--6-6-6-6--9-9-9-9--|
A-13-13-13---9--9--9--9--6-6-6-6--9-9-9-9--|
E-11-11-11---9--9--9--9--4-4-4-4--7-7-7-7--|
 

There you go.====
Comments