Flys - Got You Where I Want You Chords & Tabs

 

Got You Where I Want You Chords & Tabs

Flys Chords & Tabs

Version: 5 Type: Tab 0 ratings
1 star 2 stars 3 stars 4 stars 5 stars
comments

Got You Where I Want You Tab

   
Artist: The Flys
Song: Got You Where I Want You
Album: Disturbing Behavior Soundtrack
Tabbed By: Jonny B. 
Email: jbunnell14@netscape.net

This may not be completely right but it sounds fine to play it like this.

Main riff
e|------------------------------------|
B|------------------------------------|
G|-----------------5/7-7-7--7--7--7-7-|varies a tad
D|-----------------0---0-0-0-0-0-0-0--|each time
A|---7-6-7---7-6-7--------------------|
E|-0-------0--------------------------|

Chorus
e|---------------------------------|
B|---------------------------------|figure out the
G|-9-9-9-9-9-9-9-9-5-5-5-5-5-5-5-5-|pattern yourself
D|-9-9-9-9-9-9-9-9-7-7-7-7-7-7-7-7-|it's easy
A|-7-7-7-7-7-7-7-7-7-7-7-7-7-7-7-7-|
E|-7-7-7-7-7-7-7-7-5-5-5-5-5-5-5-5-|
[ Tab from: http://www.guitartabs.cc/tabs/f/flys/got_you_where_i_want_you_tab_ver_5.html ]
Solo
e------------------------------------------------------------------------------|
B------------------------------------------------------------------------------|
G------------------------------------------------------------------------------|
D------------------------------------------------------------------------------|
A---11-9-11-9-11-9-11--11-9-11-9-11-9-12------12--12-12---12-------12------12--|
E-0---------------------------------------12------------0----12-12----12-0-----|


main riff (8x)
chorus (4x)
main riff (8x)
chorus (4x)
chorus WITH solo [light distortion] (2x)
main riff [light distortion] (2x)
chorus WITH solo [light distortion] (7x)


Hey what's the point of this 
Hey what's your favorite song 
Maybe we could hum along
I think you're smart You sweet thing
Tell me your name I'm dying here
Ooh got you where I want you
Ooh got you where I want you
Hey maybe just a smile 
Oh hey do you know that I can dance?
Could we talk for a while
I think you're smart You sweet thing
Tell me your sign I'm dying here
Ooh got you where I want you
Ooh got you where I want you
Where I want you I want you bad
???? we don't get no rougher?
???? like no other?
???? we don't get no rougher?
???? ????
I think you're smart You sweet thing
Tell me your name I'm dying here
Ooh got you where I want you
I've got you where I want you
Got you where I want you
Want you Want you
Got you where I want you
Got you where I want you 
Got you where I want you
Comments