Flys - Got You Where I Want You Chords & Tabs

 

Got You Where I Want You Chords & Tabs

Flys Chords & Tabs

Version: 4 Type: Tab 0 ratings
1 star 2 stars 3 stars 4 stars 5 stars
comments

Got You Where I Want You Tab

   
Artist: The Flys
Song: Got You(Where I Want You)
Album: Disturbing Behaviour Sndtk
Tabbed: Jason Malyon
Contact: jmalyon2@hotmail.com

[ Tab from: http://www.guitartabs.cc/tabs/f/flys/got_you_where_i_want_you_tab_ver_4.html ]
Intro/Verse Riff
E-------------------------------------|
B-------------------------------------|
G-----------------5h7-7-7---7--7-7-7--|
D-----------------0---0-0-0--0---0-0--|
A---7-6-7---7-6-7---------------------|
E-0-------0---------------------------|

Chorus:
E-----------------|-----------------|
B-----------------|-----------------|
G-----------------|-----------------|
D-9-9-9-9-9-9-9-9-|-7-7-7-7-7-7-7-7-|
A-7-7-7-7-7-7-7-7-|-7-7-7-7-7-7-7-7-|
E-7-7-7-7-7-7-7-7-|-5-5-5-5-5-5-5-5-|

not that hard of a song to play...listen to get the beat of the song
Comments