Flyleaf - Red Sam Chords & Tabs

 

Red Sam Chords & Tabs

Flyleaf Chords & Tabs

Version: 1 Type: Tab 0 ratings
1 star 2 stars 3 stars 4 stars 5 stars
comments

Red Sam Tab

   
Artist: Flyleaf
Song: Red Sam
DROP D TUNING

Intro:
e|22--------------|
B|---22-33---3~33-|
G|---------22-----|
D|----------------|
A|----------------|
D|----------------|

Verse:
e|----------------|
B|7-7-78-10-7-7~~-|
G|----------------|
D|----------------|
A|----------------|
D|----------------|

Pre-Chorus:
e|------------------|
B|------------------|
G|------------------|
D|99-55-99-55-9-99--|
A|99-55-99-55-9-99--|
D|99-55-99-55-9-99--|
[ Tab from: http://www.guitartabs.cc/tabs/f/flyleaf/red_sam_tab.html ]
Chorus:
e|------------------------|
B|------------------------|
G|------------------------|
D|9-9-X44-5-5-555-5-5-555-|
A|9-9-X44-5-5-555-5-5-555-|
D|9-9-X44-5-5-555-5-5-555-|

Bridge:
e|-----------------------------------------|
B|----------------10--10-10----------------|
G|--------11-9--------------12-1212p10-10--|
D|9-11-12------12--------------------------|
A|-----------------------------------------|
D|-----------------------------------------|

Comments