Flyleaf - Im So Sick Chords & Tabs

 

Im So Sick Chords & Tabs

Flyleaf Chords & Tabs

Version: 1 Type: Tab 0 ratings
1 star 2 stars 3 stars 4 stars 5 stars
comments

Im So Sick Tab

   
Main Riff

e|------------------------------------------------|
B|------------------------------------------------|
G|---------------------------------------11-11-11-|
D|--3----0--3--0--3--4--3--0--4/6--6--6--x--x--x--|
A|--3----0--3--0--3--4--3--0--4/6--6--6--9--9--9--|
D|--3----0--3--0--3--4--3-—0--4/6--6--6-----------|


Bridge? Pre-Chorus?
[ Tab from: http://www.guitartabs.cc/tabs/f/flyleaf/im_so_sick_tab.html ]
e|-----------------------------------------------------------------|
B|-----------------------------------------------------------------|
G|-----------------------------------------------------------------|
D|-8-8-8-8-8-8-8-8-8-8-8-8-8-8-8-8-5-5-5-5-5-5-5-5-5-5-5-5-5-5-5-5-|
A|-8-8-8-8-8-8-8-8-8-8-8-8-8-8-8-8-5-5-5-5-5-5-5-5-5-5-5-5-5-5-5-5-| x2
D|-8-8-8-8-8-8-8-8-8-8-8-8-8-8-8-8-5-5-5-5-5-5-5-5-5-5-5-5-5-5-5-5-|


Outro

e|-----------------------------------------------------------------|
B|-----------------------------------------------------------------|
G|-----------------------------------------------------------------|
D|-3-3-3-3-3-3-3-3-3-3-3-3-3-3-3-3-0-0-0-0-0-0-0-0-0-0-0-0-0-0-0-0-|
A|-3-3-3-3-3-3-3-3-3-3-3-3-3-3-3-3-0-0-0-0-0-0-0-0-0-0-0-0-0-0-0-0-|
D|-3-3-3-3-3-3-3-3-3-3-3-3-3-3-3-3-0-0-0-0-0-0-0-0-0-0-0-0-0-0-0-0-|

  ---------------------------------|
  ---------------------------------|
  -5-5-5-5-5-5-5-5-5-5-5-5-5-5-5-5-|
  -5-5-5-5-5-5-5-5-5-5-5-5-5-5-5-5-| repeat
  -3-3-3-3-3-3-3-3-3-3-3-3-3-3-3-3-|
  ---------------------------------|
Comments