Flyleaf - Fully Alive Chords & Tabs

 

Fully Alive Chords & Tabs

Flyleaf Chords & Tabs

Version: 1 Type: Tab 0 ratings
1 star 2 stars 3 stars 4 stars 5 stars
comments

Fully Alive Tab

Intro
D |---------------------------|
A |---------------------------|
F |---------------------------|
C |---------------0-----------|
G |-------0-3-0-3---3-0-3-0---|
D |-3-0-3-------------------0-|

Verse One
D |-----|-----|---------------------------------|
A |-----|-----|---------------------------------|
F |-----|-----|---------------------------------|
C |-----|---0-|---------------0---------------0-|
G |-----|-3---|-------0-3-0-3---------0-3-0-3---|
D |-3-0-|-----|-3-0-3-----------3-0-3-----------|
                • • • • • • • • • • • • • • • •

Chorus
D |---|---|---|---|-3-|
A |---|-1-|-2-|-1-|-3-|
F |---|-0-|-2-|-0-|---|
C |-2-|-2-|-2-|-2-|---|
G |-2-|-3-|-0-|-3-|-2-|
D |-0-|---|-0-|---|-3-|
[ Tab from: http://www.guitartabs.cc/tabs/f/flyleaf/fully_alive_tab.html ]
Verse Two
D |-----|-----|-----------------|
A |-----|-----|-----------------|
F |-----|-----|-----------------|
C |-----|---0-|---------------0-|
G |-----|-3---|-------0-3-0-3---|
D |-3-0-|-----|-3-0-3-----------|
                • • • • • • • • 
                
Verse Three
D |-----|-----|---------------------------|
A |-----|-----|---------------------------|
F |-----|-----|---------------------------|
C |-----|---0-|---------------0-----------|
G |-----|-3---|-------0-3-0-3---3-0-3-0---|
D |-3-0-|-----|-3-0-3-------------------0-|
                • • • • • • • • • • • • •

Solo One
D |-----3-5-10-8-5-------------|
A |---0------------------------|
F |-2--------------7-----------|
C |------------------7-7-9-5-7-|
G |----------------5-----------|
D |----------------------------|

Solo Two
D |-----------------------------|
A |-----------------------------|
F |-----7-9-14-12-9-7-----------|
C |-2-5---------------7-7-9-5-7-|
G |-----------------5-----------|
D |-----------------------------|

Outro
D |---|---|---|
A |---|---|---|
F |---|-7-|-5-|
C |-5-|-7-|-5-|
G |-5-|-5-|-3-|
D |-3-|---|---|

Intro x 3
Verse One x 4
Chorus x 2
Verse Two x 3
Verse Three x 1
Chorus x 2
(Solo One, Solo Two) x 2
Outro x 4
Intro x 1
Comments