Flyleaf - Cassie Chords & Tabs

 

Cassie Chords & Tabs

Flyleaf Chords & Tabs

Version: 1 Type: Tab 0 ratings
1 star 2 stars 3 stars 4 stars 5 stars
comments

Cassie Tab

DADGBE
x-dead note
()-bend String
h-hammer on
p-pull off

Intro
E------------------------------|
B------------------------------|
G------------------------------|
D-7777-88-55-77-55-7-8-77------|
A-7777-88-55-77-55-7-8-77------|
D-7777-88-55-77-55-7-8-77------|
[ Tab from: http://www.guitartabs.cc/tabs/f/flyleaf/cassie_tab.html ]
Verse                      x4
E-------------------------------|-----------------------------------------|
B-------------------------------|-----------------------------------------|
G-------------------------------|-----------------------------------------|
D-------------------------------|-xxxx------------------------------------|
A-------------------------------|-xxxx------------------------------------|
D-7777-88-55-77-55-7-8-7--------|-xxxx------------------------------------|
                             (this is between the verse "The answer no"and
                            at the end of the verse)
Chorus
E------------------------------------------------------------|
B------------------------------------------------------------|
G------------------------------------------------------------|
D-777-7-7777-77-101010-10-10101010-1010-555-5-5555-55-33333--| x2
A-777-7-7777-77-101010-10-10101010-1010-555-5-5555-55-33333--|
D-777-7-7777-77-101010-10-10101010-1010-555-5-5555-55-33333--|
figure out the strumming.

Intro(the same the 1st intro)
Verse(the same as the 1st verse)
Chorus
Intro again

Bridge/Solo
E----------------------------------------------------------------------------------|
B-8/10-------8-8/10----------------8-8/10-10-(10)-8-8h10-10-11p10-10-10-10---------|
G-----14-12-9------14-7-7h9p7h9-9-9---------------------------------------9-7-12---|
D----------------------------------------------------------------------------------|
A----------------------------------------------------------------------------------|
D----------------------------------------------------------------------------------|

E-------------------------------------------------------------|
B-8-8/10-8h10p8-----------8-8/10-10-10/11---------------------|
G--------------9-9-7-7-7/9------------------------------------|
D-------------------------------------------------------------|
A-------------------------------------------------------------|
D-------------------------------------------------------------|

Chorus

and that's it.
Comments