Flyleaf - Broken Wings Chords & Tabs

 

Broken Wings Chords & Tabs

Flyleaf Chords & Tabs

Version: 2 Type: Tab 0 ratings
1 star 2 stars 3 stars 4 stars 5 stars
comments

Broken Wings Tab

   
chorus (with distortion)
e-----------------------------------------------------------------------------|
b-----------------------------------------------------------------------------|
g-----------------------------------------------------------------------------|
d-11-11-11-10-11-11-11-10-13-13-11-10-13-13-16-13-11-11-11-11-11-11-11-11-11~-|
a-11-11-------11-11-------13-13-------13-13-------11-11-11-11-11-11-11-11-11~-|
E-9-9---------9-9---------11-11-------11-11-------9-9-9-9-9-9-9-9-9~----------|

verse 2
(sorry dont have it)

2nd chorus
e----------------------------------------------------------------------------|
b----------------------------------------------------------------------------|
g----------------------------------------------------------------------------|
d-11-11-11-10-11-11-11-10-13-13-11-10-13-13-16-13-11-11-11-11-11-11-11-11-11-|
a-11-11-------11-11-------13-13-------13-13-------11-11-11-11-11-11-11-11-11-|
E-9-9---------9-9---------11-11-------11-11-------9-9-9-9-9-9-9-9-9----------|
intro and verses done in acoustic.

 2nd chorus (with distortion)
e-----------------------------------------------------------------------------|
b-----------------------------------------------------------------------------|
g-----------------------------------------------------------------------------|
d-11-11-11-10-11-11-11-10-14-14-11-10-14-14-16-13-11-11-11-11-11-11-11-11-11~-|
a-11-11-------11-11-------14-14-------14-14-------11-11-11-11-11-11-11-11-11~-|
E-9-9---------9-9---------12-12-------12-12-------9-9-9-9-9-9-9-9-9~----------|

verse 2
(sorry dont have it)

2nd chorus
e----------------------------------------------------------------------------|
b----------------------------------------------------------------------------|
g----------------------------------------------------------------------------|
d-11-11-11-10-11-11-11-10-14-14-11-10-14-14-16-13-11-11-11-11-11-11-11-11-11-|
a-11-11-------11-11-------14-14-------14-14-------11-11-11-11-11-11-11-11-11-|
E-9-9---------9-9---------12-12-------12-12-------9-9-9-9-9-9-9-9-9----------|
[ Tab from: http://www.guitartabs.cc/tabs/f/flyleaf/broken_wings_tab_ver_2.html ]
Bridge
e--------------------------------------------------------------|
b--------------------------------------------------------------|
g--------------------------------------------------------------|
d-15-15-15-15-15-15-15-15-13-13-13-13-13-13-13-13--------------|
a-15-15-15-15-15-15-15-15-13-13-13-13-13-13-13-13--------------|
E-13-13-13-13-13-13-13-13-11-11-11-11-11-11-11-11--------------|

e-------------------------------------|
b-------------------------------------|
g------------------------      bridge-|X2
d-11-11-11-11-11-11-11-11-------------|
a-11-11-11-11-11-11-11-11-------------|
E-9-9-9-9-9-9-9-9---------------------|

chorus
e-----------------------------------------------------------------------------|
b-----------------------------------------------------------------------------|
g-----------------------------------------------------------------------------|
d-11-11-11-10-11-11-11-10-13-13-11-10-13-13-16-13-11-11-11-11-11-11-11-11-11~-|
a-11-11-------11-11-------13-13-------13-13-------11-11-11-11-11-11-11-11-11~-|
E-9-9---------9-9---------11-11-------11-11-------9-9-9-9-9-9-9-9-9~----------|

outro
e-------------------------------------------------------------------------|
b-------------------------------------------------------------------------|
g-8-8-8-8-8-8-8-8-12-12-12-12-14-14-15-6-6-6-6-6-6-6-6/5-6-6-6-6-6-6-6-6--|
d-x-x-x-x-x-x-x-x-x-x-x-x-x-x-x-x-x-x-x-x-x-x-x-x-x-x-x-x-x-x-x-x-x-x-x-x-|
a-6-6-6-6-6-6-6-6-10-10-10-10-12-12-13-4-4-4-4-4-4-4-4/3-4-4-4-4-4-4-4-4--|
E-------------------------------------------------------------------------|

e---------|
b---------|
g-6-6-6-6-|
d-x-x-x-x-
a-8-8-8-8-|
e---------|


Rhthym guitar during solo:e------------------------|
b--------------------------------------------------|
g--------------------------------------------------|
d-15-15-15-15-15-15-15-15-13-13-13-13-13-13-13-13--|
a-15-15-15-15-15-15-15-15-13-13-13-13-13-13-13-13--|
E-13-13-13-13-13-13-13-13-11-11-11-11-11-11-11-11--|

e-------------------------------------|
b-------------------------------------|
g------------------------      bridge-|X2
d-11-11-11-11-11-11-11-11-------------|
a-11-11-11-11-11-11-11-11-------------|
E-9-9-9-9-9-9-9-9~--------------------|
Comments