Flying G Man - Dunno Chords & Tabs

 

Dunno Chords & Tabs

Flying G Man Chords & Tabs

Version: 2 Type: Tab 0 ratings
1 star 2 stars 3 stars 4 stars 5 stars
comments

Dunno Tab

#----------------------------------PLEASE NOTE--------------------------------#
#This file is the author's own work and represents their interpretation of the#
#song. You may only use this file for private study, scholarship, or research.#
#-----------------------------------------------------------------------------#
#-- File created with Instab - http://www.pconline.com/~smcarey/instab.html --#
#-----------------------------------------------------------------------------#

Author/Artist: The Flying G Man
Title: Dunno
Album: None as yet
Transcribed by: Gerogey
Email: pygmy01@hotmail.com

Drop D tuning

-------------------------------------------------------------------|----------|
-------------------------------------------------------------------|----------|
-------------------------------------------------------------------|----rpt---|
-----9-------9-------9-------9------4-------4-------4-------4------|----------|
---7---7---7---7---7---7---7---7--2---2---2---2---2---2---2---2----|----------|
-0-------8-------0-------8-------0------3-------0-------3----------|----------|
 intro

------------------------------------|------------------------------------------|
------------------------------------|------------------------------------------|
------------------------------------|------------------------------------------|
-------0-2-3-5-0-2-3-5-0-2-3-0-5-0-3|-0-2-3-5-0-2-3-5-0-2-3-0-5-0-3------rpt---|
-------0-2-3-5-0-2-3-5-0-2-3-0-5-0-3|-0-2-3-5-0-2-3-5-0-2-3-0-5-0-3------------|
-0-----0-2-3-5-0-2-3-5-0-2-3-0-5-0-3|-0-2-3-5-0-2-3-5-0-2-3-0-5-0-3------------|
 verse p.m---------------------------------------------------------------------|

--------------------------------------------------------------------|---------|
--------------------------------------------------------------------|---------|
--------------------------------------------------------------------|---------|
--6-6-6-6-6-6-6-6-3-3-3-3-3-3-3-3-6-6-6-6-6-6-6-6-0-0-0-0-0-0-0-0---|---------|
--6-6-6-6-6-6-6-6-3-3-3-3-3-3-3-3-6-6-6-6-6-6-6-6-0-0-0-0-0-0-0-0---|---------|
--6-6-6-6-6-6-6-6-3-3-3-3-3-3-3-3-6-6-6-6-6-6-6-6-0-0-0-0-0-0-0-0---|---------|
  chorus                                                           bk2verse
[ Tab from: http://www.guitartabs.cc/tabs/f/flying_g_man/dunno_tab_ver_2.html ]
------------------------------------------------------------------------------|
------------------------------------------------------------------------------|
------------------------------------------------------------------------------|
--6-6-6-6-6h7-7-7-7-7-5-5-3-5-0------7-------0-------8-7----0------7----------|
--6-6-6-6-6h7-7-7-7-7-5-5-3-5-0----8---7-----0----5---------0----8---5--------|
--6-6-6-6-6h7-7-7-7-7-5-5-3-5-0--------------0----5---------0-----------------|
 2nd time box

------------------------------------------------------------------------------|
------------------------------------------------------------------------------|
-7-7-7-7-7-7-7-7/4-4-4-4-4-4-4-4\7--------------------------------------------|
-7-7-7-7-7-7-7-7/4-4-4-4-4-4-4-4\7-----rpt-x2---------------------------------|
-5-5-5-5-5-5-5-5/2-2-2-2-2-2-2-2\5--------------------------------------------|
-x-x-x-x-x-x-x-x-x-x-x-x-x-x-x-x-x--------------------------------------------|
 break..............................................play with this over top..

-----1--------1--------1--------1---------------------------------------------|
-------3--------3--------3--------3---------1-------1-------1-------1---------|
---------2--------2--------0--------2---------2-------0-------0-------2-------|
--0--------3--------2--------0--------0---------2-------2-------2-------2-----|
------------------------------------------0-------3-------2-------0-------0---|
------------------------------------------------------------------------------|


------------------------------------------------------------------------------|
------------------------------------------------------------------------------|
------------------------------------------------------------------------------|
-4-4-4-4-4-4-4-4-0-0-0-0-0-0-0-0-4-4-4-4-4-4-4-4/9-9-9-9-9-9-9-9-9-9-9-9-7-7--|
-4-4-4-4-4-4-4-4-0-0-0-0-0-0-0-0-4-4-4-4-4-4-4-4/9-9-9-9-9-9-9-9-9-9-9-9-7-7--|
-4-4-4-4-4-4-4-4-0-0-0-0-0-0-0-0-4-4-4-4-4-4-4-4/9-9-9-9-9-9-9-9-9-9-9-9-7-7--|
 last verse

------------|-----------------------------------------------------------------|
------------|-----------------------------------------------------------------|
------------|-----------------------------------------------------------------|
-7-7-5-5-3-5|0------0-0-0-0-------0-0-0-0-------------------------------------|
-7-7-5-5-3-5|0------0-0-0-0-------0-0-0-0-------------------------------------|
-7-7-5-5-3-5|0------0-0-0-0-------0-0-0-0-------------------------------------|
               repeat to fade............
Comments