Flying Dutchman - Love Is Chords & Tabs

 

Love Is Chords & Tabs

Flying Dutchman Chords & Tabs

Version: 1 Type: Tab 0 ratings
1 star 2 stars 3 stars 4 stars 5 stars
comments

Love Is Tab

   
"Love is"
By: Flying Dutchman
Album: Acoustic solo, Flying Dutchman
Words and music by Eric Stroeve

Alternate Guitar Tuning: D A D G A D, key of C#.
   H P P       H               H P P             H 
|-2~3~2~0------------0--------2~3~2~0--0--------------0----------|
|---------0---3~5------3---------------0--------3~5-----3--------|
|-----------0------------0---------------0---0------------0---0--|
|------------------0-------0---------------0--------0-------0----|
|----------------------------------------------------------------|
|-0-----------0---------------0-----------------0----------------|

[ Tab from: http://www.guitartabs.cc/tabs/f/flying_dutchman/love_is_tab.html ]
                     H                              H
|-3--5-------3----------0-----3-----5--------3---------0-----3--|
|------5-------3----------0-----3-----5--------3---------0------|
|--------0-------0--0~2-----0-----0------0-------0-0~2-----0----|
|----------0-------------------------------0--------------------|
|---------------------------------------------------------------|
|-3--5-------3------0---------3-----5--------3---------------3--|

                        H P 
|------5-------3-----3---------0---|
|-3------5-------3-----0~3~0---0---|
|--3-------0-------0-----------2---|
|----0-------0-----------------0---|
|------------------------------0---|
|------5-------3---------------0---|




Comments