Flying Dutchman - It Aint Easy Chords & Tabs

 

It Aint Easy Chords & Tabs

Flying Dutchman Chords & Tabs

Version: 2 Type: Tab 0 ratings
1 star 2 stars 3 stars 4 stars 5 stars
comments

It Aint Easy Tab

   
"It Aint Easy"
As recorded by Flying Dutchman. From the CD "Carpe Diem".

Chords

C9  G   Dsus2


Intro
|-----------------------------------------|
|-----------------7~8--8~10--7~8~7~8------|
|----7--7~9-7--7~9--------------------9-7-|
|-~9--------------------------------------|
|-----------------------------------------|
|-----------------------------------------|


Verse
   C9    G     Dsus2
|------------------0----|
|----3------3-------3---|
|---0-0-----0--0~2---2--|
|----------0---0--------|
|--3--------------------|
|--------3--------------|
[ Tab from: http://www.guitartabs.cc/tabs/f/flying_dutchman/it_aint_easy_tab_ver_2.html ]
1st solo
|------12------------------------------------------------|-------10--7--------------------------------|
|-10~12---12-10--10-10-10~8--8-8-8~7--7-7-7--------7~8-7-|-8~7----------10~7-8~7-10~7-----------------|
|-------------------------------------------9--7~9-------|-----7----------------------9-7----7--7~9--7|
|--------------------------------------------------------|---------------------------------~9---------|
|--------------------------------------------------------|--------------------------------------------|
|--------------------------------------------------------|--------------------------------------------|


Lyrics

Living life with direction
was so hard to find
sometimes getting nowhere
and sometimes I would climb

And in my hour of darkness
she turned on the light
and I talked to an angel
she said "it'll be alright"

Chorus
It aint easy
Flying high above the clouds
It aint easy
To keep your feet on the ground

Heaven is but a highway
and we've all got a road
take the one that's less traveled
and let your faith carry you home

Chorus
Comments