Flying Dutchman - Deep Blue Water Chords & Tabs

 

Deep Blue Water Chords & Tabs

Flying Dutchman Chords & Tabs

Version: 1 Type: Tab 0 ratings
1 star 2 stars 3 stars 4 stars 5 stars
comments

Deep Blue Water Tab

   
Song: Deep Blue Water
Album: Flying Dutchman "Carpe Diem"(2001), "1999-2003"(2003)
Words and music by Eric Stroeve

Guitar tuning:
Eric uses a modified 5 string open G tuning in the key of D# for a number of tunes on this CD.
To reach this tuning first remove the A(5th) string from the guitar.
Tune the low E(6) to D#.
Tune the 4th string from the 6th on the seventh fret.
Tune the 3rd string from the 4th on the fifth fret.
Tune the 2nd string from the 3rd on the seventh fret.
Tune the 1st string from the 2nd on the fifth fret.

Using a tuner the strings should be:
6th: D#
5th: X
4th: A#
3rd: D#
2nd: A#
1st: D#

Tablature
[ Tab from: http://www.guitartabs.cc/tabs/f/flying_dutchman/deep_blue_water_tab.html ]
Intro (repeat 4x)
D#-|----7--5--3~2~0------------------------|
A#-|---------------0-------3-----5-----5~0-|
D#-|--0--0---0-----------3--3-----5----5---|
A#-|--------------------3-----3~5-----5----|
xxx|xxxxxxxxxxxxxxxxxxxxxxxxxxxxxxxxxxxxxxx|
D#-|-0----------------3--------~5---5------|

Verse

D#-|-------0------------------------|
A#-|-----0---0--0----3------5---5~0-|
D#-|----0-----0-----3--3-----5-5-~0-|
A#-|---0----------3------~5---------|
xxx|xxxxxxxxxxxxxxxxxxxxxxxxxxxxxxxx|
D#-|-0------------3------~5---------|

Lyrics:

Deep blue water falls down
and the wind turns around
Seek the mountains, feel the tide
Some were born to run, while I fly

Deep blue water come and go
and through this time currents flow
Destiny, seek the ride
Some were born to run

I!
Fly!

You can feel them roll
You can feel them roll
You can feel them roll

In Deep!  Blue!  Water!
Comments