Flying Dutchman - Carry On Chords & Tabs

 

Carry On Chords & Tabs

Flying Dutchman Chords & Tabs

Version: 1 Type: Tab 0 ratings
1 star 2 stars 3 stars 4 stars 5 stars
comments

Carry On Tab

   
"Carry On"
Artist: Flying Dutchman
CD: Carpe Diem

Words and music by Eric Stroeve

Alternate guitar tuning:

6 D#
5 X
4 A#
3 D#
2 A#
1 D#


     H     H P S        S       P 
|-----------------------------------|
|-----------------------------------|
|-------7----------5----~7-----7~0--|
|---7~9---7~9~7~5----5------7--7~0--|
|xxxxxxxxxxxxxxxxxxxxxxxxxxxxxxxxxxx|
|-0----------------5----~7----------|
Repeat
[ Tab from: http://www.guitartabs.cc/tabs/f/flying_dutchman/carry_on_tab.html ]
     H     H P S        H           P          H P P    H     H               
|-----------------------------------------12--4~5~4~0-----------------------|
|--------------------------------7-7~0---------------------5-----7--7--0----|
|-------7---------5----5~7-----7---7~0-----------------0~5---5~7-7--7--0----|
|---7~9---7~9~7~5---5--5~7---7-------------------------------5~7-7--7--0----|
|xxxxxxxxxxxxxxxxxxxxxxxxxxxxxxxxxxxxxxxxxxxxxxxxxxxxxxxxxxxxxxxxxxxxxxxxxxx|
|-0---------------5----5~7--------------0-------------5----------7-------0--|



Lyrics
Hold me while I dry my eyes
For love has made me cry
Take those chains that bind a king to his throne
And still I'll believe that we can carry on

I don't know how she found my way
Love ties two beyond each day
And each child comes with his and her own stones
Still we believe that we can carry on

Time turns the key in every door
I just hope that time won't come back and ask for more

Hold me while I dry my eyes
For love has made me cry
Take those chains that bind two hearts to a throne
Still we'll believe that we can carry on
We will carry on

Comments