Flybanger - Weapon Chords & Tabs

 

Weapon Chords & Tabs

Flybanger Chords & Tabs

Version: 1 Type: Tab 0 ratings
1 star 2 stars 3 stars 4 stars 5 stars
comments

Weapon Tab

   
Weapon by Flybanger
Guitarist: Brian Fratesi
Album: Headtrip To Nowhere
Dif.: 6
Tabbed by Twiggy5

NOTE: TUNE TO DROP D (D A D G B E)

* = strum 8x

Intro/Interlude/Outro (w/ semi palm mute)
D|-0-3-4-5^-(5)-3-0-|-%-|-%-|-0-3-0-3-3-3-0-|
A|-0-3-4-5^-(5)-3-0-|-%-|-%-|-0-3-0-3-3-3-0-|
D|-0-3-4-5^-(5)-3-0-|-%-|-%-|-0-3-0-3-3-3-0-|
               ^ bend 1/2 step then back down to bracketed 5

Verse (“It’s no sense...”)
E|-12--10-----------------12-12-10-|
B|-12--10-----------------12-12-10-|
G|-12--10-----------------12-12-10-|

Chorus (“She wants me to....”)
D|-8*-10(4x)-12(4x)-5(10x)-3-5-5-3-5-5-3-|
A|-8*-10(4x)-12(4x)-5(10x)-3-5-5-3-5-5-3-|
D|-8*-10(4x)-12(4x)-5(10x)-3-5-5-3-5-5-3-|

Bridge
D|-1-1-1-1-1--0-R------|-%-|-%-|-1-1-1-1-1--0------------|
A|-1-1-1-1-1--0-R------|-%-|-%-|-1-1-1-1-1--0------------|
D|-1-1-1-1-1--0-R------|-%-|-%-|-1-1-1-1-1--0------------|
					    ^ let ring

Bridge P2 (PM ALL)
D|-1-1-1-1-1-0-0-0-0-0-|-%-|-%-|-%-|-1-1-1-3-1-0-0-0-0-0-|
A|-1-1-1-1-1-0-0-0-0-0-|-%-|-%-|-%-|-1-1-1-3-1-0-0-0-0-0-|
D|-1-1-1-1-1-0-0-0-0-0-|-%-|-%-|-%-|-1-1-1-3-1-0-0-0-0-0-|

Song Structure: -
Drum Fill
Bass N Drums
YA!!!!!!!
Intro
Verse Bass (“She sits at home...”)
Verse
Interlude
Chorus
Interlude
Verse Bass (“She’s got it down..”)
verse (“Heaven loth past....”)
Interlude
Chorus
Break Bass And Women Moaning For Pleasure
Bridge
Bridge P2
Chorus
Outro
Outro (w/o PM)

Alright there ya go. An awseome flybanger song. A very underrated band. If you have 
any  comments, corrections or suggestions email me at ToXic345sx@yahoo.ca
===========


Hey, I think when I sent this tab in the first time, I misspelled 
the name. This should be under 'Flybanger' not 'Fybanger'. You 
can just delete the other band and tab and just put this tab in 
it's proper place. Sorry about that. :P


Song: Weapon
Artist: Flybanger
Album: Headtrip to Nowhere
As tabbed by Joe Muggah
joe_the_man3@hotmail.com

Dropped D

Riff
e---------------------------------------------------------
B---------------------------------------------------------
G---------------------------------------------------------
D--0--3-5-5/65-3-0--0--3-5-5/65-3-0--0--3-5-5/65-3-0---
A--0--3-5-5/65-3-0--0--3-5-5/65-3-0--0--3-5-5/65-3-0---
D--0--3-5-5/65-3-0--0--3-5-5/65-3-0--0--3-5-5/65-3-0---
[ Tab from: http://www.guitartabs.cc/tabs/f/flybanger/weapon_tab.html ]
(continued)
e---------------------------------------------------------
B---------------------------------------------------------
G---------------------------------------------------------
D--0-3-0--3-3-3--0----------------------------------------
A--0-3-0--3-3-3--0----------------------------------------
D--0-3-0--3-3-3--0----------------------------------------

Verse
e--12---10------12-12-10-----10--10--10--10--10--10--10---
B--12---10------12-12-10-----10--10--10--10--10--10--10---
G--12---10------12-12-10-----10--10--10--10--10--10--10---
D---------------------------------------------------------
A---------------------------------------------------------
D---------------------------------------------------------

Fill
e---------------------------------------------------------
B---------------------------------------------------------
G---------------------------------------------------------
D--12m-11m-10m-8------------------------------------------
A--12m-11m-10m-8------------------------------------------
D--12m-11m-10m-8------------------------------------------

Chorus
e---------------------------------------------------------
B---------------------------------------------------------
G---------------------------------------------------------
D--8-8-8-8-8-8-8-8--10-10-10-10--12-12-12-12--5-5-5-5-5---
A--8-8-8-8-8-8-8-8--10-10-10-10--12-12-12-12--5-5-5-5-5---
D--8-8-8-8-8-8-8-8--10-10-10-10--12-12-12-12--5-5-5-5-5---
("She wants me to die...")

(continued)
e---------------------------------------------------------
B---------------------------------------------------------
G---------------------------------------------------------
D--5-5-5-5-5--3-5-5--3-5-5--3-----------------------------
A--5-5-5-5-5--3-5-5--3-5-5--3-----------------------------
D--5-5-5-5-5--3-5-5--3-5-5--3-----------------------------

Bridge 1
e---------------------------------------------------------
B---------------------------------------------------------
G---------------------------------------------------------
D--1-1-1-1-1--0---------------1-1-1-1-1--0----------------
A--1-1-1-1-1--0---------------1-1-1-1-1--0----------------
D--1-1-1-1-1--0---------------1-1-1-1-1--0----------------

Bridge 2 (palm muted)
e---------------------------------------------------------
B---------------------------------------------------------
G---------------------------------------------------------
D--1-1-1-1-1--0-0-0-0-0--1-1-1-1-1--0-0-0-0-0--1-1-1-1-1--
A--1-1-1-1-1--0-0-0-0-0--1-1-1-1-1--0-0-0-0-0--1-1-1-1-1--
D--1-1-1-1-1--0-0-0-0-0--1-1-1-1-1--0-0-0-0-0--1-1-1-1-1--

(continued)
e---------------------------------------------------------
B---------------------------------------------------------
G---------------------------------------------------------
D--0-0-0-0-0--1-1-1-1-1--0-0-0-0-0--1-1-1-3-1--0-0-0-0-0--
A--0-0-0-0-0--1-1-1-1-1--0-0-0-0-0--1-1-1-3-1--0-0-0-0-0--
D--0-0-0-0-0--1-1-1-1-1--0-0-0-0-0--1-1-1-3-1--0-0-0-0-0--


Riff
Verse
Riff
Fill
Chorus
Riff
Verse
Riff
Fill
Chorus
Bridge 1
Bridge 2
Fill
Chorus
Riff
Comments