Flybanger - Skidmark Chords & Tabs

 

Skidmark Chords & Tabs

Flybanger Chords & Tabs

Version: 1 Type: Tab 0 ratings
1 star 2 stars 3 stars 4 stars 5 stars
comments

Skidmark Tab

   
Song: Skidmark
Artist: Flybanger
Album: -
As tabbed by Joe Muggah
joe_the_man3@hotmail.com

Dropped D

Intro 
e----------------------------------------------------------
B----------------------------------------------------------
G----------------------------------------------------------
D--6--x--6--x--0--3----------------------------------------
A--6--x--6--x--0--3----------------------------------------
D--6--x--6--x--0--3----------------------------------------

Verse
e----------------------------------------------------------
B----------------------------------------------------------
G----------------------------------------------------------
D--0--0-0-0--1-2-3---0--0-0-0--1-2-3-----------------------
A--0--0-0-0--1-2-3---0--0-0-0--1-2-3-----------------------
D--0--0-0-0--1-2-3---0--0-0-0--1-2-3-----------------------

Fill 1
e----------------------------------------------------------
B----------------------------------------------------------
G----------------------------------------------------------
D--6---6---6---6---6m-0m-3m--------------------------------
A--6---6---6---6---6m-0m-3m--------------------------------
D--6---6---6---6---6m-0m-3m--------------------------------

Chorus (each hit 2 times and palm muted)
e----------------------------------------------------------
B----------------------------------------------------------
G--5-5-5-5-------------------------------------------------
D--5-5-5-5--1-1-1-1--0-0-0-0--3-3-3-3---(all x 2 then:)----
A--3-3-3-3--1-1-1-1--0-0-0-0--3-3-3-3----------------------
D-----------1-1-1-1--0-0-0-0--3-3-3-3----------------------

(continued, each hit 2 times)
e----------------------------------------------------------
B----------------------------------------------------------
G--5-5-5-5--8-8-8-8--7-7-7-7-----------5-5-5-5-------------
D--x-x-x-x--x-x-x-x--x-x-x-x--3-3-3-3--5-5-5-5--1-1-1-1----
A--3-3-3-3--6-6-6-6--5-5-5-5--3-3-3-3--3-3-3-3--1-1-1-1----
D-----------------------------3-3-3-3-----------1-1-1-1----

Fill 2
e----------------------------------------------------------
B----------------------------------------------------------
G----------------------------------------------------------
D--0--0-0--3--3--------------------------------------------
A--0--0-0--3--3--------------------------------------------
D--0--0-0--3--3--------------------------------------------
[ Tab from: http://www.guitartabs.cc/tabs/f/flybanger/skidmark_tab.html ]
Bridge
e----------------------------------------------------------
B----------------------------------------------------------
G--5--5-5-5------------------------------------------------
D--5--5-5-5--1-1--0--0m-0m--0m-0m--0m-0m--0m-0m------------
A--3--3-3-3--1-1--0--0m-0m--0m-0m--0m-0m--0m-0m------------
D------------1-1--0--0m-0m--0m-0m--0m-0m--0m-0m------------

Riff
e--10----10----10----10----10---10----10----10----10----10-
B-----10----10----10----10---------10----10----10----10----
G----------------------------------------------------------
D----------------------------------------------------------
A----------------------------------------------------------
D----------------------------------------------------------

(continued)
e--10--------11^--11---------------------------------------
B------10--------------------------------------------------
G----------------------------------------------------------
D----------------------------------------------------------
A----------------------------------------------------------
D----------------------------------------------------------

Solo (Repeat 4 times)
e----------------------------------------------------------
B--8/10--10--10-10--10\8--8/10--10/13--13-13--13\12--12\10-
G----------------------------------------------------------
D----------------------------------------------------------
A----------------------------------------------------------
D----------------------------------------------------------

(continued)         end on
e-------------------|--10----10----10----10-----|----------
B-------------------|-----10----10----10----10--|--10-(x8)-
G--11--11-11-11-11--|---------------------------|----------
D-------------------|---------------------------|----------
A-------------------|---------------------------|----------
D-------------------|---------------------------|----------

Fill 3 (with wah)
e----------------------------------------------------------
B----------------------------------------------------------
G----------------------------------------------------------
D--6---6---6---6-\-----------------------------------------
A--6---6---6---6-\-----------------------------------------
D--6---6---6---6-\-----------------------------------------

Outro
e----------------------------------------------------------
B----------------------------------------------------------
G----------------------------------------------------------
D--6---6---6---6--6m-5m-3m-0m---6---6---6---6--6m-5m-3m-0m-
A--6---6---6---6--6m-5m-3m-0m---6---6---6---6--6m-5m-3m-0m-
D--6---6---6---6--6m-5m-3m-0m---6---6---6---6--6m-5m-3m-0m-


Intro
Verse
Fill 1
Verse
Chorus
Verse
Chorus
Fill 2
Bridge
Riff
Solo
Fill 3
Verse
Chorus
Outro
Comments