Flybanger - Haul Chords & Tabs

 

Haul Chords & Tabs

Flybanger Chords & Tabs

Version: 1 Type: Tab 0 ratings
1 star 2 stars 3 stars 4 stars 5 stars
comments

Haul Tab

   
Flybanger - Haul
Submitted By: TWIGGy5
EMail: toxic345x@yahoo.ca
Guitarist: Bryan Fratsesi
Album: Headtrip To Nowhere
Dif.: 7
Tabbed by TWIGGy5

NOTE: Tune down to Drop D (D A D G B E)
NOTE: * = strum 8x

Intro
D|--/5-5-5--5--5-5-5--5--5-5-5-|
A|--/5-5-5--5--5-5-5--5--5-5-5-|
D|--/5-5-5--5--5-5-5--5--5-5-5-|
    * first time only

Fill 1 (“I see you out there….”)
D|--5-5-5--5--5-5-5--5--5-5-5-|-%-|-%-|--5-5-5--5*-|
A|--5-5-5--5--5-5-5--5--5-5-5-|-%-|-%-|--5-5-5--5*-|
D|--5-5-5--5--5-5-5--5--5-5-5-|-%-|-%-|--5-5-5--5*-|
 PM--------------------------|

Intro P2
D|-0--/7--5--5--7-7-7--0--/7--5--XX-7-XX-7--
A|-0--/7--5--5--7-7-7--0--/7--5--XX-7-XX-7--
D|-0--/7--5--5--7-7-7--0--/7--5--XX-7-XX-7--

Intro P2 (cont.)
D|-0--/7--5--5--7-7-7--0--/7--5--XXXXXXXX--|
A|-0--/7--5--5--7-7-7--0--/7--5--XXXXXXXX--|
D|-0--/7--5--5--7-7-7--0--/7--5--XXXXXXXX--|

Verse (“Bind, crawl…”)
A|-------5^-|-%-|-%-|-%-|-%-|-%-|-%-|-%-|
D|-0-0-0----|-%-|-%-|-%-|-%-|-%-|-%-|-%-|
          ^ half step

Verse (cont.)
D|-------5^-|-%-|-%-|-%-|-%-|-%-|-------5^---|
A|----------|-%-|-%-|-%-|-%-|-%-|------------|
D|-0-0-0----|-%-|-%-|-%-|-%-|-%-|-0-0-0------|
         ^ half step                     ^ grad bend full step

Pre-Chorus (“One more effort……”)
D|--10--------0-0-0-0-0-0-0-0-0-0-0-0-0-0-0-0--|-%-|-%-|-10----|
A|--10--------0-0-0-0-0-0-0-0-0-0-0-0-0-0-0-0--|-%-|-%-|-10----|
D|--10(5x)----0-0-0-0-0-0-0-0-0-0-0-0-0-0-0-0--|-%-|-%-|-10(3x)|
             PM-------------------------------|

Fill 2 ("So link the haul..")
G|--5--4-----------|
D|----------3-2-1--|
A|-------3--3-2-1--|
D|----------3-2-1--|
    PH     pm----|

Chorus ("Haul my feelings coming in..")
D|-0----/7--5-5--7-7-7--5555555555--|
A|-0----/7--5-5--7-7-7--5555555555--|
D|-0----/7--5-5--7-7-7--5555555555--|
                       PM----------|

Fill 3
D|-0--/7--5--5--7-7-7---5-5-5-5--|
A|-0--/7--5--5--7-7-7---5-5-5-5--|
D|-0--/7--5--5--7-7-7---5-5-5-5--|

Solo (w/wah) (This solo is fucking completely wrong, but it’s hard cause there’s 2 guitars going at the same time and the wah is so heavy)
G|----------------7^7^7^7^--|
D|--5^5^5^5^----------------|
       ^ All 1/2 step bends

Bridge (Gtr. 1)
D|-0h2-2-2-2--0h2-2-2-2--0h2-2-2-|
A|-0h2-2-2-2--0h2-2-2-2--0h2-2-2-|
D|-0h2-2-2-2--0h2-2-2-2--0h2-2-2-|
  PM----------------------------|

Bridge (Gtr. 2)
G|-11--9---7---/14--|
D|-X---X---X-----X--|
A|-8---7---5---/12--|

Outro (Gtr. 1)
D|-0-0--2--0-0--1--|
A|-0-0--2--0-0--1--|
D|-0-0--2--0-0--1--|

Outro (Gtr. 2)
G|---------------------------|
D|--9-9-9-9-9-9-9-9--9^(8x)--|
                      ^ slowly bend up to full step


Song Structure: -
Drum Fill
Drums
Intro
Fill 1
Intro P2
Verse
Pre-Chorus
Fill 2
Chorus
Fill 3 (“Haul my feelings coming…”) 3rd time
Verse (“Break spine……”)
Pre-Chorus
Fill 2
Chorus
Fill 3 (“Haul my feelings coming…”) 3rd time
Solo (?????????)
Bridge (Gtr. 1)/Bridge (Gtr. 2)
Verse (“Bind crawl.…….”)
Outro (Gtr. 1)
Outro (Gtr. 1)/Outro (Gtr. 2)

Okay there you go. Sorry about the solo. It’s just mixed up and I hate 
tabbing shit on wah. But I tried. I’m going to bed now. Any comments, 
corrections or suggestions email me at toxic345x@yahoo.ca
===========Song: Haul
Artist: Flybanger
Album: Headtrip to Nowhere (2001)
As tabbed by Joe Muggah

Dropped D tuning
[ Tab from: http://www.guitartabs.cc/tabs/f/flybanger/haul_tab.html ]
Intro
e--7--(let ring)---------7/---------------------------------
B-----------------------------------------------------------
G-----------------------------------------------------------
D-----------------------------------------------------------
A-----------------------------------------------------------
D-----------------------------------------------------------

Riff
e-----------------------------------------------------------
B-----------------------------------------------------------
G-----------------------------------------------------------
D--0-0-0--5/7--5--5--5-6-7---0-0-0--5/7---x-x-5--x-x-5------
A--0-0-0--5/7--5--5--5-6-7---0-0-0--5/7---x-x-5--x-x-5------
D--0-0-0--5/7--5--5--5-6-7---0-0-0--5/7---x-x-5--x-x-5------

Verse
e-----------------------------------------------------------
B-----------------------------------------------------------
G-----------------------------------------------------------
D-----------------------------------------------------------
A-----------------(all x 8 then:)----------------(all x 7)--
D--0m-0m-0m--12^-------------------0m-0m-0m--17^------------
("Burn...crawl..step away from it all")

Pre-Chorus
e-----------------------------------------------------------
B-----------------------------------------------------------
G-----------------------------------------------------------
D--10--10--10--10--10--0m-0m-0m-0m-0m-0m-0m-0m-0m-0m-0m-0m--
A--10--10--10--10--10--0m-0m-0m-0m-0m-0m-0m-0m-0m-0m-0m-0m--
D--10--10--10--10--10--0m-0m-0m-0m-0m-0m-0m-0m-0m-0m-0m-0m--
("One more effort...")

(continued)  end on
e------------|----------------------------------------------
B------------|----------------------------------------------
G------------|----------------------------------------------
D--0m-0m-0m--|-------------5m-3m-2m-------------------------
A--0m-0m-0m--|--5--3-------5m-3m-2m-------------------------
D--0m-0m-0m--|--------5^---5m-3m-2m-------------------------

Chorus
e-----------------------------------------------------------
B-----------------------------------------------------------
G-----------------------------------------------------------
D-0--5/7--5--5--5-7--3m-3m-3m-3m-3m-3m-3m-3m-3m-3m-3m-3m-3m-
A-0--5/7--5--5--5-7--3m-3m-3m-3m-3m-3m-3m-3m-3m-3m-3m-3m-3m-
D-0--5/7--5--5--5-7--3m-3m-3m-3m-3m-3m-3m-3m-3m-3m-3m-3m-3m-
("All my feelings coming...")

Solo (played twice)
e-----------------------------------------------------------
B-----------------------------------------------------------
G--12^13^12v----12^13^12--10----7/97----7/97--------------
D---x------------x---------x----x--------x------75^--------
A--10^11^10v----10^11^10---8----5/75----5/75--x-----------
D-----------------------------------------------75^--------

Bridge A (Guitar 1, palm muted)       Bridge B (Guitar 2)
e-------------------------------------|---------------------
B-------------------------------------|---------------------
G-------------------------------------|--12-----------------
D--0h2-2-2-2-2--0h2-2-2-2-2--0h2-2-2--|---x--(let ring)-----
A--0h2-2-2-2-2--0h2-2-2-2-2--0h2-2-2--|--10-----------------
D--0h2-2-2-2-2--0h2-2-2-2-2--0h2-2-2--|---------------------

Outro                                        end on
e--------------------------------------------|--------------
B--------------------------------------------|--------------
G--------------------------------------------|--------------
D--0m-0m--2---0m-0m--1---0m-0m--2--0m-0m--1--|--1-----------
A--0m-0m--2---0m-0m--1---0m-0m--2--0m-0m--1--|--1-----------
D--0m-0m--2---0m-0m--1---0m-0m--2--0m-0m--1--|--1-----------


Intro
Riff
Verse
Pre-Chorus
Chorus
Verse
Pre-Chorus
Chorus
Solo
Bridge A, B
Verse
Outro
Comments