Flybanger - Blind World Chords & Tabs

 

Blind World Chords & Tabs

Flybanger Chords & Tabs

Version: 2 Type: Tab 0 ratings
1 star 2 stars 3 stars 4 stars 5 stars
comments

Blind World Tab

   
  Fly Banger       Tuning D|-
 "Blind World"            A|-
  Headtrip To Nowhere     F|-
                          C|-
                          G|-
                          C|-


    [intro]Clean
 D|------------------------------------------------------------------|
 A|-6-7-6-7-6--6-7-6-7-6--6-7-6-7-6--6-7-6-7-8-----------------------|
 F|---7---7-7----7---7-7----7---7-7----7---7-9-----------------------|
 C|------------------------------------------------------------------|
 G|------------------------------------------------------------------|
 C|------------------------------------------------------------------|

    Distorted           x2                      x8
 D|-----------------------|-----------------------|------------------|
 A|-----------------------|-----------------------|------------------|
 F|-----------------------|-----------------------|------------------|
 C|---7---7---7---7-------|---7---7---7---7-------|------------------|
 G|-0-5-0-5-0-5-0-5-------|-0-5-0-5-0-5-0-5-5/3/0-|------------------|
 C|-0---0---0---0---------|-0---0---0---0---------|------------------|

    [verse]Distorted
                        x3                      x5
 D|-----------------------|-----------------------|------------------|
 A|-----------------------|-----------------------|------------------|
 F|-----------------------|-----------------------|------------------|
 C|---7---7---7---7-------|---7---7---7---7-------|------------------|
 G|-0-5-0-5-0-5-0-5-------|-0-5-0-5-0-5-0-5-------|------------------|
 C|-0---0---0---0---------|-0---0---0---0---3b----|------------------|

    [pre-chorus]Distorted
 D|------------------------------------------------------------------|
 A|------------------------------------------------------------------|
 F|------------------------------------------------13-13-13-13--13---|
 C|-5-5-5-5-5-5-5-3-3-0-2-0-2-0--5-5-5-5-5-5-5-3-3--x--x--x--x---x---|
 G|-5-5-5-5-5-5-5-3-3-0-2-0-2-0--5-5-5-5-5-5-5-3-3-11-11-11-11--11---|
 C|-5-5-5-5-5-5-5-3-3-0-2-0-2-0--5-5-5-5-5-5-5-3-3-------------------|
                      p.m.-----
[ Tab from: http://www.guitartabs.cc/tabs/f/flybanger/blind_world_tab_ver_2.html ]
    [chorus]Distorted
 D|------------------------------------------------------------------|
 A|------------------------------------------------------------------|
 F|-------14-14--14--------14-14--14---------------------------------|
 C|-2-2-0--x--x---x--2-2-0--x--x---x--2-2-0-2-0-2--0-2-2-0-----------|
 G|-2-2-0-12-12b-12--2-2-0-12-12b-12--2-2-0-2-0-2--0-2-2-0-----------|
 C|-2-2-0------------2-2-0------------2-2-0-2-0-2--0-2-2-0-----------|

    [break]Distorted
 D|------------------------------------------------------------------|
 A|------------------------------------------------------------------|
 F|------------------------------------------------------------------|
 C|-2--0-2--0-2--0-2-0--2--0-2--0-2--0-2-0--2--0-2--0-2--0-2-0-------|
 G|-2--0-2--0-2--0-2-0--2--0-2--0-2--0-2-0--2--0-2--0-2--0-2-0-------|
 C|-2b-0-2b-0-2b-0-2-0--2b-0-2b-0-2b-0-2-0--2b-0-2b-0-2b-0-2-0-------|

    Distorted (let ring)
 D|-------------------------------------------|----------------------|
 A|-------------------------------------------|----------------------|
 F|-------------------------------------------|----------------------|
 C|-5----------8----------10---------12-------|----------------------|
 G|-5----------8----------10---------12-------|----------------------|
 C|-5----------8----------10---------12-------|----------------------|

           x8         x8         x8
 D|----------|----------|----------|---------------------------------|
 A|----------|----------|----------|---------------------------------|
 F|----------|----------|----------|-------------13-13-13-13---------|
 C|-5--------|-8--------|-10-------|-12-12-12-12--x--x--x--x---------|
 G|-5--------|-8--------|-10-------|-12-12-12-12-11-11-11-11---------|
 C|-5--------|-8--------|-10-------|-12-12-12-12---------------------|

    [lyrics]
  When are we going to finally meet destruction
When are we gonna finally meet disorder


Pretend you're not blind and just see there's no more time


Try to make what will break
Just another fool in a blind world
Lived a lie with all the hype
Just another fool like the other ones
When are we going to finally meet destruction
When are we going to finally meet destruction
Pretend you're not blind and just see there's no more time
Try to make what will break
Just another fool in a blind world


Somewhere inside you tried to hide just another fool like the other ones just like the other ones
Comments