Fly My Pretties - Quiet Girl Chords & Tabs

 

Quiet Girl Chords & Tabs

Fly My Pretties Chords & Tabs

Version: 1 Type: Tab 0 ratings
1 star 2 stars 3 stars 4 stars 5 stars
comments

Quiet Girl Tab

   
Fly My Pretties - Quiet Girl

Written by Samuel Flynn Scott

Tabbed by Vermox


Opening riff:
e:---------------------------------------------|
B:---------------------------------------------|
G:---------------------------------------------|
D:--7h8-7-5--5----5--------7-8-7-5--5----5-----|
A:---------8----7----5------------8----7----5--|
E:---------------------------------------------|

Strumming pattern:

This is repeated throughout the whole song by guitar 2. Guitar 1, when not playing the 
riff and the closing riff also plays this
[ Tab from: http://www.guitartabs.cc/tabs/f/fly_my_pretties/quiet_girl_tab.html ]
    G                F      C7
e:--3-3-X--3--3-3-X--1-1-X--3-3-X--3-3---------|
B:--3-3-X--3--3-3-X--1-1-X--1-1-X--3-3---------|
G:--0-0-X--0--0-0-X--2-2-X--3-3-X--0-0---------|
D:---------------------------------------------|
A:---------------------------------------------|
E:---------------------------------------------|


Closing riff:
e:----------------------(-----------)
B:----------------------(-----------)
G:----------------------(-5b--------)  x4
D:--7-8-7-5--5----5-----(----8-7--5-)
A:---------8----7----5--(-----------)
E:----------------------(-----------)

 h  = Hammer on
 b  = Bend
 X  = Percussive scratch
(-) = play quietly
Comments