Flunk - Blue Monday Chords & Tabs

 

Blue Monday Chords & Tabs

Flunk Chords & Tabs

Version: 3 Type: Tab

Blue Monday Tab

Artist: Flunk
Song: Blue Monday
Tabbed by: bryanX
Email: yoshitoshi67@hotmail.com
Tunning: Standard

[ Tab from: http://www.guitartabs.cc/tabs/f/flunk/blue_monday_tab_ver_3.html ]
'treat me like you do...'
e|---------------------------------------------------------|
B|--------------------------------------------6------------|
G|-------10------------5-------------7--------7------------|
D|----10-----10------5----5--------7----7------------------|
A|--8-----------8--3--------3----5---------5---------------|
E|---------------------------------------------------------|


e|---------------------------------------------------------|
B|--------------------------------------------6------5-----|
G|--------12-------------5-------------7--------7------7---|
D|-----12-----12-------5----5--------7----7-------7------7-|
A|--10-----------10--3--------3----5--------5--------------|
E|---------------------------------------------------------|

__________________________________________________________________