Flunk - Blue Monday Chords & Tabs

 

Blue Monday Chords & Tabs

Flunk Chords & Tabs

Version: 1 Type: Tab 0 ratings
1 star 2 stars 3 stars 4 stars 5 stars
comments

Blue Monday Tab

----------------------------------------------------------------------------
			     SONG NAME - Band Name
----------------------------------------------------------------------------
Tabbed by: j_hawker
Email: j_hawker@comcast.net

Tuning: Standard

Found this while I was looking for Orgy's cover of New Order's Blue Monday.
[ Tab from: http://www.guitartabs.cc/tabs/f/flunk/blue_monday_tab.html ]
There's really only one progression through the entire song; the weird flanged part
(beginning at 1:25) is just the A-string notes of the power chords. This is the way
it's played on the track; you can just adjust the power chord finger pattern to low
E to save running up and down the board, if you want. I personally think it sounds
better with the sliding noises.


e|----------------------------0--------------------------------------------|
B|----------------------------6---------------------------------6---5------|
G|-------9--------5--------7-------------12---------5--------7---7---7-----|
D|------9-9------5-5------7-7----------12--12------5-5------7-7---7---7----|
A|--7-7------3-3------5-5--------10-10---------3-3------5-5----------------|
E|-------------------------------------------------------------------------|

Aaand... that's it. Seriously. :P

============================================================================
Comments