Florence And The Machine - Breaking Down Chords & Tabs

 

Breaking Down Chords & Tabs

Florence And The Machine Chords & Tabs

Version: 1 Type: Bass Tab 0 ratings
1 star 2 stars 3 stars 4 stars 5 stars
comments

Breaking Down Bass Tab

2 bars Drums intro
Violin bit
g--|----------------|----------------|----------------|----------------|
d--|----------------|----------------|----------------|----------------|
a--|----------------|--------3-3---3-|4-4---4-4-4---4-|4-4---4-7-7---7-|X2
e--|4-4---4-4-4---4-|4-4---4---------|----------------|----------------|

Verse
g--|----------------|----------------|----------------|----------------|
d--|----------------|----------------|----------------|----------------|
a--|----------------|--------3-3---3-|4-4---4-4-4---4-|4-4---4-7-7---7-|X2
e--|4-4---4-4-4---4-|4-4---4---------|----------------|----------------|

Bridge
g--|----------------|----------------|----------------|----------------|
d--|1-1---1-1-1---1-|1-1---1-4-4---4-|----------------|----------------|
a--|----------------|----------------|4-4---4-4-4---4-|4-4---4-4-4---4-|
e--|----------------|----------------|----------------|----------------|

g--|----------------|----------------|----------------|----------------|
d--|1-1---1-1-1---1-|1-1---1-4-4---4-|----------------|----------------|
a--|----------------|----------------|4-4---4-4-4---4-|1---------------|
e--|----------------|----------------|----------------|----------------|

Chorus
g--|----------------|----------------|----------------|----------------|
d--|----------------|----------------|----------------|----------------|
a--|----------------|3-3---3-3-3---3-|4-4---4-4-4---4-|4-4---4-7-7---7-|X2
e--|4-4---4-4-4---4-|----------------|----------------|----------------|

Verse (as before)

Bridge (as before)

Chorus
g--|----------------|----------------|----------------|----------------|
d--|----------------|----------------|----------------|----------------|
a--|----------------|3-3---3-3-3---3-|4-4---4-4-4---4-|4-4---4-7-7---7-|X2
e--|4-4---4-4-4---4-|----------------|----------------|----------------|
[ Tab from: http://www.guitartabs.cc/tabs/f/florence_and_the_machine/breaking_down_btab.html ]
Break (2 bars drums)

Verse
g--|----------------|----------------|----------------|----------------|
d--|----------------|----------------|----------------|----------------|
a--|----------------|--------3-------|4---------------|--------7-------|X2
e--|4---------------|----------------|----------------|----------------|

Bridge (start super quiet, then get louder gradually)
g--|----------------|----------------|----------------|----------------|
d--|1-1-1-1-1-1-1-1-|1-1-1-1-4-4-4-4-|----------------|----------------|
a--|----------------|----------------|4-4-4-4-4-4-4-4-|4-4-4-4-4-4-4-4-|
e--|----------------|----------------|----------------|----------------|

g--|----------------|----------------|----------------|----------------|
d--|1-1-1-1-1-1-1-1-|1-1-1-1-4-4-4-4-|----------------|----------------|
a--|----------------|----------------|4-4-4-4-4-4-4-4-|1-1-1-1-1-1-1-1-|
e--|----------------|----------------|----------------|----------------|

Chorus
g--|----------------|----------------|----------------|----------------|
d--|----------------|----------------|----------------|----------------|
a--|----------------|3-3---3-3-3---3-|4-4---4-4-4---4-|4-4---4-7-7---7-|X4
e--|4-4---4-4-4---4-|----------------|----------------|----------------|

Violin bit
g--|----------------|----------------|----------------|----------------|
d--|----------------|----------------|----------------|----------------|
a--|----------------|--------3-3---3-|4-4---4-4-4---4-|4-4---4-7-7---7-|X2
e--|4-4---4-4-4---4-|4-4---4---------|----------------|----------------|

Outtro
g--|----------------|----------------|----------------|----------------|
d--|----------------|----------------|----------------|----------------|
a--|----------------|----------------|----------------|----------------|
e--|----------------|----------------|4---------------|----------------|
Comments