Flop Poppy - Cinta Chords & Tabs

 

Cinta Chords & Tabs

Flop Poppy Chords & Tabs

Version: 1 Type: Tab 0 ratings
1 star 2 stars 3 stars 4 stars 5 stars
comments

Cinta Tab

CINTA by FLOP POPPY

Transcribed by aerif_grunge

Intro

e------10-8-7---------------------------
b----8--------8-7-8-7-7/8-7-------------
g--7------------------------7-----------
d-----------------------------7-5-4-0---
a---------------------------------------
e---------------------------------------

Progression for verse 

Guitar 1

e--3------3------3------2-------------------------------------------------
b--3------3------3------3-------------------------------------------------
g--0------0------0------2-------------------------------------------------
d--0------2------3------0-------------------------------------------------
a--x------0------2--------------------------------------------------------
e--3----------------------------------------------------------------------

Guitar 2 (with a little bit of distortion and delay)

e-------------------------------------------------------------------------
b-------------------------------------------------------------------------
g----------------5--------------------------------------------------------
d--5-------------5--------------------------------------------------------
a--5-------------3--------------------------------------------------------
e--3----------------------------------------------------------------------

Guitar 3

e--------3-------------3-------------3-----------3-2----------------------
b----------3---3---------3---3---------3---3---2-----3---3----------------
g------0-----0-------0-----0-------0-----0---0---------2------------------
d----0-------------2-------------2----------------------------------------
a----------------0-------------3------------------------------------------
e--3----------------------------------------------------------------------



Chorus

Guitar 1 and Guitar 3

e--0------0------3------2--------------------------------------------------
b--0------3------0------3--------------------------------------------------
g--x------0------0------2--------------------------------------------------
d--2------2------0------0--------------------------------------------------
a--2------3------x---------------------------------------------------------
e--0-------------3---------------------------------------------------------

Guitar 2 (distortion)

e--------------------------------------------------------------------------
b--------------------------------------------------------------------------
g---------5-------------7--------------------------------------------------
d--2------5------5------7--------------------------------------------------
a--2------3------5------5--------------------------------------------------
e--0-------------3---------------------------------------------------------

First solo (Guitar 2)
[ Tab from: http://www.guitartabs.cc/tabs/f/flop_poppy/cinta_tab.html ]
e-----------------------------------10-8-7-8-7-7h8p7-----------------------
b-----------3-5-7-7h8p7---7-7h8p7/5------------------8---------------------
g------(4)--------------9------------------------------7~~-5-4-5\4---------
d--4h5-------------------------------------------------------------5~~~~~~~
a--------------------------------------------------------------------------
e--------------------------------------------------------------------------

Second solo (Guitar 2)

e----------------------------10-8-7-8-7-8/10-8-7-------|-------10-10-10--|-8-7-8-7-------------
b----------3-5-7-7/8\7---7/8---------------------8-----|-8-8-8-----------|---------8-----------
g-----(4)--------------9---------------------------7~~-|-----------------|-----------7-5-4h5p4~
d-4h5--------------------------------------------------|-----------------|---------------------
a------------------------------------------------------|-----------------|---------------------
e------------------------------------------------------|-----------------|---------------------
			                                |alternate picking|

Guitar 3 (only play during the first and second solo - let the nots ring)

e--------8-----7-----8/7----------------------------------------------------
b------8-----------------8--------------------------------------------------
g----7-------7-----7-------7------------------------------------------------
d--5-------5-----5----------------------------------------------------------
a---------------------------------------------------------------------------
e---------------------------------------------------------------------------

Bridge 

Guitar 1 and Guitar 3

e--0------0------3------2------0------2-------------------------------------
b--0------3------0------0------1------3-------------------------------------
g--x------0------0------2------0------2-------------------------------------
d--2------2------0------1------2------0-------------------------------------
a--2------3------x------2------3--------------------------------------------
e--0-------------3----------------------------------------------------------

e---------------------------------------------------------------------------
b---------------------------------------------------------------------------
g---------5-------------4------5------7-------------------------------------
d--2------5------5------4------5------7-------------------------------------
a--2------3------5------2------3------5-------------------------------------
e--0-------------3----------------------------------------------------------

Then, repeat intro, but the second time is like this

e------10-8-7-------------10/12-10~~~----
b----8--------8-7-8-7-7/8----------------
g--7-------------------------------------
d----------------------------------------
a----------------------------------------
e----------------------------------------

Ending

e--3-----------------------------------------------------------------------
b--3-----------------------------------------------------------------------
g--0-----------------------------------------------------------------------
d--0-----------------------------------------------------------------------
a--x-----------------------------------------------------------------------
e--3-----------------------------------------------------------------------

Enjoy!
Comments