Flogging Molly - Wanderlust Chords & Tabs

 

Wanderlust Chords & Tabs

Flogging Molly Chords & Tabs

Version: 1 Type: Tab 0 ratings
1 star 2 stars 3 stars 4 stars 5 stars
comments

Wanderlust Tab

   
Wanderlust - by Flogging Molly
Album: Within A Mile Of Home
Tabber: AmpSinatra

Not to sure about the lyrics, but i did the best i could.
Also, the bassline is not included, but hey, itīs a guitar tab.

Chorus:
              G			  C		   G	         C
Do you still walk the streets at night, with the wanderlust you fight
	     G		       C	D	G
back to the corner, where we went our seperate ways

Verse:
	  G		C
Well I'd love to photograph your hand
	G              C
Then shake it for a while
	    G		  C
Cause you learn so much about someone
    G     C  D   G
A brother or a swine

the veins that plough(?) beneath your path
with so many tales to tell
a picture out of focus(?)
in a frame where no one cares

call the ocean breeze
quiet the raging sea
this stormy ship we sail
is a bottle filled with rage

Chorus

well we walked upon the railroad
cause the train no longer ran
where we caught a glimpse of all we missed
from the stars that filled our eyes

with a dollar in your lonely(?) coat
and a furball in your hand
you set your sail for better days
down in South Australia

dark though it has been
your oulī spirit still shines within
these last thirteen years depraved
of us anything that's worth savin'

Chorus again

[ Tab from: http://www.guitartabs.cc/tabs/f/flogging_molly/wanderlust_tab.html ]
Bridge:
     G	     D	      G		      C
So raise a cheer to those forgotten years
	     G		      C		D	G
Back to the corner, where we went our seperate ways

now the carnival is going home
the fairies wheel is spent
for those roving years of endless cheers
have dried all that was left

call the ocean breeze
quiet the raging sea
this stormy ship we sail
is a bottle filled with rage


Melody:
Chorus:
e:---------------------------------------------|
b:---------------------------------------------|
g:-0-2-4-0----0-2-4-0---444-2-0----5-4-2-0-0---|
d:---------2----------2----------0-------------|
a:---------------------------------------------|
e:---------------------------------------------|

Verse:

e:-------------------\--------|
b:-------------------|--------|
g:-----0-2-4-0---0------------|>3x, then repeat last motive from above.
d:-0-0---------2---2-|--------|
a:-------------------|--------|
e:-------------------/--------|

Bridge:

e:-------------------------------------------|
b:-------------------------------------------|
g:-4-0-4-2-0-4-4-4-5-5-5-4-0---0-5-4-2-0-0---|
d:---------------------------0---------------|
a:-------------------------------------------|
e:-------------------------------------------|


Melody is also transcribed, in case you lack a band with flute and fiddle.

Thanks, for any feedback:
ampsinatra@gmx.net
Comments