Flogging Molly - Swagger Chords & Tabs

 

Swagger Chords & Tabs

Flogging Molly Chords & Tabs

Version: 4 Type: Tab 0 ratings
1 star 2 stars 3 stars 4 stars 5 stars
comments

Swagger Tab

   
-----------------------------------------------------------------------------
			     Swagger - Flogging Molly
-----------------------------------------------------------------------------


Tabbed by: Russell Hacker
Email: Ruzzell56@musician.net

Tuning: Standard

Intro play 4x
e |---------------------------------------------------------------|
B |-----------------------3-33-2---------3-33-2-------------------|
G |-------------------2-2---------4-2--2--------4-2-2-4-2-0-------|
D |--------0-00-0-2-4---------------------------------------4-2---|
A |--0-2-4--------------------------------------------------------|
E |---------------------------------------------------------------|

B                    D 
Don't know where i'm going...

B                    D   A
Don't know where i'm going...

[ Tab from: http://www.guitartabs.cc/tabs/f/flogging_molly/swagger_tab_ver_4.html ]
e |---------------------------------|
B |---------------------------------|
G |------2-2-4-42-2-4-42-4-2-0------|
D |--0-2-----------------------4-2--|
A |---------------------------------|
E |---------------------------------|

Intro 2x

B   A   B  A 

e |---------------------------------|
B |---------------------------------|
G |------2-2-4-42-2-4-42-4-2-0------|
D |--0-2-----------------------4-2--|
A |---------------------------------|
E |---------------------------------|

B                    D 
Don't know where i'm going...

B                    D   A
Don't know where i'm going...


e |---------------------------------|
B |---------------------------------|
G |------2-2-4-42-2-4-42-4-2-0------|
D |--0-2-----------------------4-2-0|
A |---------------------------------|
E |---------------------------------|

B G B G A
B G B G A

Intro over and over till end
End with A D
Comments