Flogging Molly - Swagger Chords & Tabs

 

Swagger Chords & Tabs

Flogging Molly Chords & Tabs

Version: 3 Type: Tab 0 ratings
1 star 2 stars 3 stars 4 stars 5 stars
comments

Swagger Tab

e |------------------------------------------------------------|
B |------------------------------------------------------------|
G |---------------------7-77-4-------7-77-4--------------------|
D |--------0-00-0-2-4-4--------7-5-5--------7-5-5-5/7-5-4-2/4--|
A |--0-2-4-----------------------------------------------------|
E |------------------------------------------------------------|
 

e |------------------------------------------------------------|
B |------------------------------------------------------------|
G |---------------------7-77-4-------7-77-4--------------------|
D |--------0-00-0-2-4-4--------7-5-5--------7-5-5-5/7-5-4-2-0--|
A |--0-2-4-----------------------------------------------------|
E |------------------------------------------------------------|
[ Tab from: http://www.guitartabs.cc/tabs/f/flogging_molly/swagger_tab_ver_3.html ]
Comments