Flogging Molly - Drunken Lullabies Chords & Tabs

 

Drunken Lullabies Chords & Tabs

Flogging Molly Chords & Tabs

Version: 3 Type: Tab 0 ratings
1 star 2 stars 3 stars 4 stars 5 stars
comments

Drunken Lullabies Tab

#----------------------------------PLEASE NOTE---------------------------------#
#This file is the author's own work and represents their interpretation of the #
#song. You may only use this file for private study, scholarship, or research. #
#------------------------------------------------------------------------------#

Flogging Molly
Drunken Lullabies
Lyrics by Dave King
Music by Dave King, Hutt, Robert Schmidt, Nathen Maxwell,
         Matt Hensley, George Schwindt, Dennis Casey, Bridget Regan
Copyright 2002 26f RPM, Inc.

[ Tab from: http://www.guitartabs.cc/tabs/f/flogging_molly/drunken_lullabies_tab_ver_3.html ]
-------------------3-2----------------
-----3-3-3-3-5-3-------5-5-5-3-5--3---
---4-------------4------------------4-
-5------------------------------------
--------------------------------------
--------------------------------------

-----------------------------------
-----3-3-3-3-5-3-------------------
---4-------------4-5-4-2-2-2-2-4-2-
-5---------------------------------
-----------------------------------
-----------------------------------

-------------------3-2----------------
-----3-3-3-3-5-3-------5-5-5-3-5--3---
---4-------------4------------------4-
-5------------------------------------
--------------------------------------
--------------------------------------

-------------------------------------------
-----3-3-3-3-------------------------------
---4---------5-4-2-2-2-2-4-2-0-0-0-0-0-2-0-
-5-----------------------------------------
-------------------------------------------
-------------------------------------------

Comments