Flogging Molly - Drunken Lullabies Chords & Tabs

 

Drunken Lullabies Chords & Tabs

Flogging Molly Chords & Tabs

Version: 2 Type: Tab 0 ratings
1 star 2 stars 3 stars 4 stars 5 stars
comments

Drunken Lullabies Tab

song:drunken lullabies

by:flogging molly

intro
e---------------------------------------------------------------------
B---------------------------------------------------------------------
G-------------4-----7-6-4444--4-----------------4---------------------
D--0-4-7777-7---7-4----------7--7-4--0-4-7777-7---7-4-5-4-2222-2-4-2--
A---------------------------------------------------------------------
E---------------------------------------------------------------------
 
[-----------------------------------------------------------------------
[-----------------------------------------------------------------------
[-------------4-----7-6-4444---4----------------------------------------
[--0-4-7777-7---7-4----------7---7-4--0-4-7777-5-4-2222-4-2-0000-0-2-0--
[-----------------------------------------------------------------------
[-----------------------------------------------------------------------
[ Tab from: http://www.guitartabs.cc/tabs/f/flogging_molly/drunken_lullabies_tab_ver_2.html ]
brige
e------------------------------------------------------------------
B------------------------------------------------------------------
G--77777777--------77777777--------777777777--------7777----77777--
D--77777777555555557777777777777777777777777555555557777777777777--(2x)
A--55555555555555555555555577777777555555555555555555555777755555--
E----------33333333--------55555555---------33333333----5555-------

verse
e----------------------------------------------------------------------
B----------------------------------------------------------------------
G--77777777777777774444444444444444----------------44444444------------
D--7777777777777777444444444444444455555555555555554444444477777777----(2x)
A--5555555555555555222222222222222255555555555555552222222277777777----
E----------------------------------3333333333333333--------55555555----

chorus
e---------------------------------------------------------------
B---------------------------------------------------------------
G----------44444444----------------7-7-4-4-----4-4---------7----
D--555555554444444455555555777777777-7-4-4-5-5-4-4-5-5-7-7-7----(2x)
A--555555552222222255555555777777775-5-2-2-5-5-2-2-5-5-7-7-5----
E--33333333--------3333333355555555--------3-3-----3-3-5-5------

~brige~(2x)

~verse~(2x)

~chorus~(2x)
Comments