Flogging Molly - Drunken Lullabies Chords & Tabs

 

Drunken Lullabies Chords & Tabs

Flogging Molly Chords & Tabs

Version: 1 Type: Chords 0 ratings
1 star 2 stars 3 stars 4 stars 5 stars
comments

Drunken Lullabies Chords

This is a banjo tab for the opening of drunken lullabies.



--------0-000--2--0-----5--4-2222--0--2--0-----------0-000--2--0---
-----0---------------0----------------------0-----0---------------0
--0--------------------------------------------0-------------------
-------------------------------------------------------------------
-------------------------------------------------------------------

[ Tab from: http://www.guitartabs.cc/tabs/f/flogging_molly/drunken_lullabies_crd.html ]
----------------------------0-000--2--0-----5--4--2222--0--2--0----
--1--0--------0----------0---------------0-----------------------0-
--------22222---2-----0--------------------------------------------
-------------------------------------------------------------------
-------------------------------------------------------------------


-------0000--------------------------------------------------------
----0--------1--0--------0-----------------------------------------
-0-----------------2222-----2--000000000---------------------------
-------------------------------------------------------------------
-------------------------------------------------------------------


That is the opening and i think the chords are G C D7 and Em.
Comments