Flogging Molly - Drunken Lullabies Chords & Tabs

 

Drunken Lullabies Chords & Tabs

Flogging Molly Chords & Tabs

Version: 2 Type: Bass Tab 0 ratings
1 star 2 stars 3 stars 4 stars 5 stars
comments

Drunken Lullabies Bass Tab

ntro:
G:-----------------------------------------------------------------------------------------|
D:-----------------5-------------------------7------7------------------5-------------------|
A:----5------5-3-------5-----5------5-5-----5---------5-----5-3-----------5-5----5------5--|
E:-3-----3-----------3-----3-----3--------------------3----3----------3-3--------3-----3---|

Verse:
(x2)
G:--------------------------------------------------------------------------------------------|
D:----------------------------------------------------5----5----5---5-----------------7----7--|
A:----5----5----5----5-----2----2----2----2--3----3----3----3--------2----2-5----5------------|
E:-3----3----3----3-----0----0----0----0-----------------------------0----0-------------------|
[ Tab from: http://www.guitartabs.cc/tabs/f/flogging_molly/drunken_lullabies_btab_ver_2.html ]
Chorus:
G:-------------------------------------------------------------------------------------|
D:----5----5----------------5----5----7----7-------------------------------------------|
A:-3----3-------5----5--3----3----5----5----------3-3-2-2-------------5-5----5-----5---|
E:-------------3----3----------------------------3-3------------0-0--3-3------3-----3--|


ntro

Verse

Chorus


Brdge:
G:-----------------------------------------------------------------------------------|
D:-----------------------------------------------------------------------------------|
A:-3-3-5-5---5---5--3-3-5-5----5----5--3-3-5-5------3-3--3-3-5-5----5---5------------|
E:------------3---3---------------3----3----------------3-3------------------3----3--|

Chorus

ntro

Chorus

Verse

Chorus


Outro:
G:----------------------------------------------------------------------------|
D:----------------------------------------------------------------------------|
A:------3-3-2-2------------5-5------5-5-------3-3-2-2------------5-5----5-----|
E:-3-3-----------0-0--3-3------3-3-------3-3-----------0-0--3-3------3-----3--|
Comments