Flogging Molly - Drunken Lullabies Chords & Tabs

 

Drunken Lullabies Chords & Tabs

Flogging Molly Chords & Tabs

Version: 1 Type: Bass Tab 0 ratings
1 star 2 stars 3 stars 4 stars 5 stars
comments

Drunken Lullabies Bass Tab

Artist:Flogging Molly
Song:Drunken Lullabies
Tabbed by Randombass

Intro
 ----------------- ----------------- ----------------- -----------------
 -----------5----- -----------7---7- -----------5----- -----------------
 ---5---5-3-----5- ---5---5-5---5--- ---5---5-3------- -55---5---5------
 -3---3-------3--- -3---3----------- -3---3-------33-- ----3---3--------

Verse
 ----------------- ----------------- ----------------- -----------------
 ----------------- ----------------- ---5---5---5---5- -----------7---7-
 ---5---5---5---5- ---2---2---2---2- -3---3---3---3--- ---2---2-5---5---
 -3---3---3---3--- -0---0---0---0--- ----------------- -0---0-----------
[ Tab from: http://www.guitartabs.cc/tabs/f/flogging_molly/drunken_lullabies_btab.html ]
Chorus
 ----------------- ----------------- ----------------- -----------------
 ---5---5--------- ---5---5---7---7- ----------------- -----------------
 -3---3-----5---5- -3---3---5---5--- ----33-22-------- -55---5---5------
 ---------3---3--- ----------------- -33-------00-33-- ----3---3--------

Bridge
 ----------------- ----------------- ----------------- -----------------
 ----------------- ----------------- ----------------- -----------------
 -33-55---5---5--- -33-55---5---5--- -33-55----33-33-- -55---5---5------
 -------3---3----- -------3---3----- -------33-------- ----3---3--------

Outro
 ----------------- ----------------- -----------------
 ----------------- ----------------- -----------------
 ----55----55----- ----33-22-------- -55---5----------
 -33----33-------- -33-------00-33-- ----3---3-------- (Let last note ring)

Riff Order: 
Intro    x1
Verse    x2
Chorus   x1
Intro    x1
Verse    x2
Chorus   x1
Bridge   x1
Chorus   x1
(rest)
Intro    x1
Chorus   x1
Verse    x2
Chorus   x1 and a half
Outro    x1
Comments