Flogging Molly - Black Friday Rule Chords & Tabs

 

Black Friday Rule Chords & Tabs

Flogging Molly Chords & Tabs

Version: 1 Type: Tab 0 ratings
1 star 2 stars 3 stars 4 stars 5 stars
comments

Black Friday Rule Tab

   
#----------------------------------PLEASE NOTE---------------------------------#
#This file is the author's own work and represents their interpretation of the #
#song. You may only use this file for private study, scholarship, or research. #
#------------------------------------------------------------------------------#

"Black Friday Rule"
by Flogging Molly

tabbed by Eric Bonkowski

*CAPO 2ND FRET*

rhythm fig. 1
electric
   Am       C5        G5       Am          C5         Am
|----------------------------------------------------------|
|--1--1-----1------------------1----1-1----1-1--------1----|
|--2--2-----x---------0--------2----2-2----x-x--------2----|
|--2--2-----2---------0--------2----2-2----2-2--0-----2----|
|--0--0--2--3--3p2p0--x--3p2---0----0-0--2-3-3----3-2-0----|
|---------------------3------3-----------------------------|

                              Am          C5            Am
|----------------------------------------------------------|
|-----------------------------1---1--1----1-------------1--|
|-----------------------------2---2--2----x-------------2--|
|-2-2-2-2p0---0---------------2---2--2----2-------------2--|
|-----------3---2-3-3-3-3p0---0---0--0--2-3-3p2p0---3-2-0--|
|---------------------------3---------------------3--------|

acoustic fill
(fast strumming)
|----0-0-0-0-0------R--------------------------------------|
|----1-1-1-1-1------E--------------------------------------|
|----2-2-2-2-0h2----P--------------------------------------|
|----2-2-2-2-0h2----E--------------------------------------|
|--0-0-0-0-0-0------A--------------------------------------|
|-------------------T--------------------------------------|
[ Tab from: http://www.guitartabs.cc/tabs/f/flogging_molly/black_friday_rule_tab.html ]
play fig. 1 once
then use this as a fill:
  Dm            Am Dm            Am
|-1-1-1-1-1-1---0--1-1-1-1-1-1---0-------------------------|
|-3-3-3-3-3-3---1--3-3-3-3-3-3---1-------------------------|
|-2-2-2-2-2-2---2--2-2-2-2-2-2---2-------------------------|
|-0-0-0-0-0-0---2--0-0-0-0-0-0---2-------------------------|
|-------------0-0--------------0-0-------------------------|
|----------------------------------------------------------|

|----------------------------------------------------------|
|----------------------------------------------------------|
|----------------------------------------------------------|
|----------------------------------------------------------|
|-0-0-2-3-3p2p0-------------3-2-0-0-0-0-0-0-0-0-0-0-0------|
|---------------3-3-3-3-3-3--------------------------------|
                  PM.......     PM...................

|guitar solo|
the beginning and a good chunk of it is just figure 1 played palm
muted. for better effect, mess around in the Am pentatonic scale,
with position at the 5th fret (7th without the capo). the solo
sounds good regardless of exactly what you play as long as you 
stay in the Am pentatonic. i'm pretty sure that this riff is 
reoccurring throughout, though

|----------------------R------------------------------------|
|----------------------E------------------------------------|
|----------------------P------------------------------------|
|--7-7-7p5-------------E-x4---------------------------------|
|----------7--7p5------A------7p5-------7p5-------7p5-------|
|-----------------8-5--T----------8-5-5-----8-5-5-----8-5-5-|
                            light PM........................

***

acoustic guitar shadows most of the electric work here,
except in the solo. note that figure 1 isn't the EXACT
guitar used during the verses or chorus, but it's nearly
the exact same. use the same chords and progressions and
it'll sound right. the solo is fun and it's a perfect time
to pull out your own chops and improv. to get the solo the
same as from the cd, just stay on the 5th fret and follow the 
same general progression. have fun

any questions email Fixxxer411@yahoo.com
Comments