Floater - The Face Of Order Chords & Tabs

 

The Face Of Order Chords & Tabs

Floater Chords & Tabs

Version: 1 Type: Bass Tab 0 ratings
1 star 2 stars 3 stars 4 stars 5 stars
comments

The Face Of Order Bass Tab

   
FTH80:F#C#G#D#; Generated by Fast Tab, do not erase
====================
>From            : Mexipad134
Artist          : Floater
Bass Performance: The Face Of Order
Comments:       : REALLY FUCKING HARD CORE
---
Strings: D#,G#,C#,F#
Symbols explanations:
  H: hammer on  P: pull off
  +: slap       .: pop
  \: slide up   /: slide down
  --x~~x~~x: triplets
====================

|   e  e  e  e  e  e  e  e  e  e  e  e                                           
F#---------------------------------------------------------------------------------
C#---------------------------------------------------------------------------------
G#-------------------------------3--2----------------------------------------------
D#--00-00-00--6--5--3--00-00-00--------3-------------------------------------------
>  beggining                                                                           
[ Tab from: http://www.guitartabs.cc/tabs/f/floater/the_face_of_order_btab.html ]
   
|   e  e  e  e  e  e  e  e  e  e  e  e  e  e  e  e  e  e                         
F#-------------------------------------------------------------------------------
C#-------------------------------------------------------------------------------
G#-------------------------------------------------------------------------------
D#--0--3--0--5--0--6--0--5--3--0--0--3--0--5--0--6--0--5-------------------------

>     solo and with guitar                                                             
               
|   e  e  e  e  e  e  e  e  e  e  e  e  e  e  e  e                               
F#-------------------------------------------------------------------------------
C#-------------------------------------------------------------------------------
G#--------------------------------------3--2-----1-------------------------------
D#--0--3--2--1--0--3--2--1--0--3--2--1--------3----------------------------------
>   hardcore                                                                           
 
|   e  e  e  e  e  e  e  e  e  e  e
F#---------------------------------
C#---------------------------------
G#-----------------------3--2-----1                                              
D#--0--00-3--00-2--00-0--------3---
>   end hardcore                               
| 
F#-------------------------------------      
C#-------------------------------------                                        
G#-------------------------------------
D#--00-0--3--00-0--6--5--3--00-0--3--00
> solo my way play it if you want, it doesn't sound better but its cool.

thats it, this song is really fucking core so but some back into it. Mexipad134
espinosa@teleport.com

Comments