Flipsyde - Someday Chords & Tabs

 

Someday Chords & Tabs

Flipsyde Chords & Tabs

Version: 2 Type: Tab 0 ratings
1 star 2 stars 3 stars 4 stars 5 stars
comments

Someday Tab

|e|-----------------------------------------------------------------|
|B|-----------------------------------------------------------------|
|G|--------------5---------------7---------------5-7-9-10-9-7-5-4---|
|D|--7-7-7-6-7-9-----7-7-7-6-7-9-----7-7-7-6-7-9--------------------|
|A|-----------------------------------------------------------------|
|E|-----------------------------------------------------------------|

-|--------------------------------5-4h5-7-8-10-13-12-h13-12---|
-|------------------------5-6-5-------------------------------|
-|--4-4-4-5-4---4-5-4-5-7-------------------------------------|
-|------------7-----------------------------------------------|
-|------------------------------------------------------------|
-|------------------------------------------------------------|
[ Tab from: http://www.guitartabs.cc/tabs/f/flipsyde/someday_tab_ver_2.html ]
-|-----0-8-7-8----8-7-8---7-10-8-10-7-10-8-10---8-12-10-12-8-12-10-12---|
-|---10--------10-------------------------------------------------------|
-|--9-------------------------------------------------------------------|
-|----------------------------------------------------------------------|
-|----------------------------------------------------------------------|
-|----------------------------------------------------------------------|

-|------15-13-12----13-12-------15-13-12----13-12--|
-|----13---------15-----------13---------15--------|
-|--14----------------------14---------------------|
-|-------------------------------------------------|
-|-------------------------------------------------|
-|-------------------------------------------------|

-|131313-121212------|
-|-------------------|
-|-------------------|
-|-------------------|
-|-------------------|
-|-------------------|

-|-------15-13-12------13-12----------------------|
-|-----13---------15---------15-13-15-13-12----12-|
-|---14-------------------------------------14----|
-|------------------------------------------------|
-|------------------------------------------------|
-|------------------------------------------------|

-|-----------------------------------------------|
-|-----------------------------------------------|
-|-----------------------------------------------|
-|-15-14-12-14-12--------------------------------|
-|----------------15-14-12-----------------------|
-|-----------------------------------------------|


By: Flexmaster Mike
Comments