Flip 50 - Sand In An Hour Glass Chords & Tabs

 

Sand In An Hour Glass Chords & Tabs

Flip 50 Chords & Tabs

Version: 1 Type: Tab 0 ratings
1 star 2 stars 3 stars 4 stars 5 stars
comments

Sand In An Hour Glass Tab

   
This song starts on the bass. the guitar kicks in after the drums click
it off. its in a 4/4 time, 

Intro (on bass)

G------------------- |
D-------------------.|
A-1/4-4-----1-1-----.|
E-------1-1-----2-2- |
    "Forget me not..."

Part one:
Both guitars
e---------------------------------------- |
B---------------------------------------- |
G-6-x-x-6-x-x----------------------------.|
D-6-x-x-6-x-x-6-x-x-6-x-x-8-x-x-6-x-x-6--.|
A-4-x-x-4-x-x-6-x-x-6-x-x-8-x-x-6-x-x-6-- |
E-------------4-x-x-4-x-x-6-x-x-4-x-x-4-- |
" These are the days..."


Part two:
Both guitars
e------------- |
B------------- |
G-------------.|
D-4---4-6---6-.|
A-4---4-6---6- |
E-2---2-4---4- |
"Am I gone..."

[ Tab from: http://www.guitartabs.cc/tabs/f/flip_50/sand_in_an_hour_glass_tab.html ]
Part 3:
Guitar one
e-------------------------------------------------------------
B-------------------------------------------------------------
G-6-6-6-6-6-6-6-6-1010101010101010-13-13-13-13-13-13-13-13-13-
D-x-x-x-x-x-x-x-x-x-x-x-x-x-x-x-x--x--x--x--x--x--x--x--x--x--
A-4-4-4-4-4-4-4-4-8-8-8-8-8-8-8-8--11-11-11-11-11-11-11-11-11-
E-------------------------------------------------------------

e------------------------- |
B------------------------- |
G-11-11-11-11-11-11-11-11-.|
D-x--x--x--x--x--x--x--x--.|
A-9--9--9--9--9--9--9--9-- |
E------------------------- |

Guitar two
e----------------------------------------------------------------- |
B----------------------------------------------------------------- |
G-6-6-6-6-6-6-6-6-----------------3-3-3-3-3-3-3-3-----------------.|
D-6-6-6-6-6-6-6-6-3-3-3-3-3-3-3-3-3-3-3-3-3-3-3-3-4-4-4-4-4-4-4-4-.|
A-4-4-4-4-4-4-4-4-3-3-3-3-3-3-3-3-1-1-1-1-1-1-1-1-4-4-4-4-4-4-4-4- |
E-----------------1-1-1-1-1-1-1-1-----------------2-2-2-2-2-2-2-2- |


Order of parts:
Intro
Part 1
Part 2
Part 1
Part 2
Part 3
Part 2
Part 1

*I'm 99 percent sure this tab is right, I've seen Flip 50 play this
song 3 or 4 times now, and its my favorite song by them. This is the
way I play it with my band and it sounds right. Flip 50 only has one
guitar player, but we have two, so this is the way we play it. Plus,
I'm not sure, but I think on the CD I Might here two guitar parts.
Comments