Flip - Weekend Chords & Tabs

 

Weekend Chords & Tabs

Flip Chords & Tabs

Version: 1 Type: Bass Tab 0 ratings
1 star 2 stars 3 stars 4 stars 5 stars
comments

Weekend Bass Tab

Artist: Flip
Song: Weekend
Genre: Alternative

INTRO
G----------------------------------------------
D--7-7-7-7-------------------------------------
A----------7-7-7--5*-5-5-5-5-5--3-3-3--2-2--0--
E----------------------------------------------
[ Tab from: http://www.guitartabs.cc/tabs/f/flip/weekend_btab.html ]
MAIN RIFF
G---------------------------------------
D----------5-5---5---3-3---3---5-5---5--
A--3-3---3------------------------------
E---------------------------------------

CHORUS
G-------------------------------------------
D-------------------------------------------
A-------------------------------------------
E--9-9-9-9--7-7-7--5-5-5-5--3-3---3*--2-0-5-

OUTRO
G-----------------------------------
D-----------------------------------
A--5-5--3-3--0-0---5--0-0--3-3------
E-----------------------------------

* means hold

Comments