Flight Of The Conchords - Albi Chords & Tabs

 

Albi Chords & Tabs

Flight Of The Conchords Chords & Tabs

Version: 2 Type: Tab

Albi Tab

   
Albi the racist dragon tabbed by
Sascha Antropov-saschava@gmail.com

the notes in (x)'s are low and probably not played, but it sounds ok if they are played

intro
          
   C                   Em                  Gm  
E||--3----3--3----3--||--3----3--3----3--||--3----3--3----3--| 
B||--5----5--5----5--||--5----5--5----5--||--3----3--3----3--| 
G||--5----5--5----5--||--4----4--4----4--||--3----3--3----3--| 
D||-(5)--(5)(5)--(5)-||------------------||-(5)--(5)(5)--(5)-| 
A||------------------||------------------||-(5)--(5)(5)--(5)-| 
E||------------------||------------------||------------------| 
[ Tab from: http://www.guitartabs.cc/tabs/f/flight_of_the_conchords/albi_tab_ver_2.html ]
   Dm                  Fm                  G
E||--1----1--1----1--||---------1h3p1----||--3------------3--| 
B||--3----3--3----3--||------1--------1--||--3------------3--| 
G||--2----2--2----2--||----1---1---------||--4------------4--| 
D||--0----0--0----0--||--3---------------||-(5)----------(5)-| 
A||------------------||------------------||------------------| 
E||------------------||------------------||------------------|



the Fm is played like 

|--1----1--1----1---| 
|--1----1--1----1---| 
|--1----1--1----1---| 
|--3----3--3----3---|
|-(3)--(3)(3)--(3)--| 
|-------------------|


through everything but the intro and the G is played in a simalar fashion and thats
how the song goes, just repeat the intro over the verse