Flickerstick - Sorry Wrong Trajectory Chords & Tabs

 

Sorry Wrong Trajectory Chords & Tabs

Flickerstick Chords & Tabs

Version: 1 Type: Bass Tab 0 ratings
1 star 2 stars 3 stars 4 stars 5 stars
comments

Sorry Wrong Trajectory Bass Tab

#----------------------------------PLEASE NOTE---------------------------------#
#This file is the author's own work and represents their interpretation of the #
#song. You may only use this file for private study, scholarship, or research. #
#------------------------------------------------------------------------------#
ARTIST:	Flickerstick
SONG:	Sorry...Wrong Trajectory
ALBUM:	Causing A Catastrophe - Live

Transcribed by: Alec Dhuse (dhusea@student.gvsu.edu)

|------------------------------|
|             Key              |
|------------------------------|
| h - hold note                |
| * - Short Fast Note          |
| / - Slide                    |
|------------------------------|


Bass Comes in at 1:02 and plays:
G|-------------------------------------------------------------|
D|-------------------------------------------------------------|
A|------------------1*-1*-1*--------------------------4--------|
E|-4/2222-2222-2222-----------4*-4*-4*--2*-2*-2---2-2---2-4-2-4|
[ Tab from: http://www.guitartabs.cc/tabs/f/flickerstick/sorry_wrong_trajectory_btab.html ]
G|---------------------------------------------|
D|---------------------------------------------|
A|-1*-1*-1*---------------------------4--------|
E|----------4*-4*-4*--2*-2*-2-----2-2---2-4-2-4|



Plays 10 Times
G|-------------------------------------------------|
D|-------------------------------------------------|
A|-1111-1111----------------------------4----------|
E|------------4444-4444--2222-2222--2-2---2-4-2-4--|



Slower Part Towards The End
G|-------------------------------------------------|
D|-------------------------------------------------|
A|-1h----------------------------------------------|
E|----------4h-----------2h------------------------|

G|-------------------------------------------------|
D|-------------------------------------------------|
A|-1h-----------------------------------4----------|
E|----------4h-----------2222-2222--2-2---2-4-2-4--|



Plays 7 Times
G|-------------------------------------------------|
D|-------------------------------------------------|
A|-1111-1111----------------------------4----------|
E|------------4444-4444--2222-2222--2-2---2-4-2-4--|



Ending
G|-------------------------------------------------|
D|-------------------------------------------------|
A|-1111-1111---------------------------------------|
E|------------4444-4444--2-2-2-2-2h----------------|
Comments