Flickerstick - Smile Chords & Tabs

 

Smile Chords & Tabs

Flickerstick Chords & Tabs

Version: 5 Type: Tab 0 ratings
1 star 2 stars 3 stars 4 stars 5 stars
comments

Smile Tab

   
"Smile"  Flickerstick
transcribed by: Lloyd Nicart
lloyd3844@msn.com
(I Love this song)(1L13L35}

Strings:  E A D G B E
      G = 3 5 5 4 3 3
  Gsus4 = 3 5 5 5 3 3
     C2 = x 3 5 5 3 3

"Smile"
            G
The ship is high
    Gsus                G           C2
And I don't know how to make it down
              G
But I'm gonna try 
    Gsus       G              C2
To slip inside mind of a clown
        G
Follow me 
Gsus             G           C2
Thinkin' I could save you now
        G
Follow me
Gsus             G           C2
Thinkin' I could turn a frown
       (RiffA 3x or listen to the song)
Into smile

RiffA: (Think they used some delay for this one but you can always 
       just pick each note)       
e--------------------------------------------------------------------
B-15.15.15.15.15-16.16.16--13.13.13.13.13-15.15.15--11.11.11.11.11---
G--------------------------------------------------------------------
D====================================================================
A====================================================================
E====================================================================

e--------------------------------------------------------------------
B-13.13.13--9.9.9.9.9------------------------------------------------
G---------------------10.10.10---------------------------------------
D====================================================================
A====================================================================
E====================================================================
(While playing RiffA the music will start to build up and get heavy 
there are two guitar parts for this part of the song Guitar1 with 
dist and Guitar2 with dist and a little flange or phase.)

Into a smile....
G1: (similar chords as of the verse but distorted)G, Gsus, G, C2
G2:         repeat 3x            | 
e-|------------------------10----|----------10-12-12-15-12-----------
B-|12-10--10-12---10--10-12---12-|-12-10-12---------------15-12-10---
G-|-----12----------12-----------|-----------------------------------
D=|==============================|===================================
A=|==============================|===================================
E=|==============================|===================================
(And then for the finale both guitars plays the Guitar1 part(rhythm) 
together but you can also improvise and lead over that part and kick 
butts it's in Key of G major or E minor)

Alright Rock on axe slingers !! 
===========
Band: Flickerstick
Song: Smile (demo)
Tabbed by: Scypheroth	
Tuning: Standard
Note: thanks to alsharp81@hotmail.com for the solo
      Credit goes to him on that

Verse

   G     Cadd9
e|-3--3--------3--3------------------
b|-3--3--3--3--3--3--3--3------------
g|-0--0--0--0--0--0--0--0------------
d|-0--0--2--2--0--0--2--2------------
a|-2--2--3--3--2--2--3--3------------
E|-3--3--------3--3------------------

repeat that throughout

midway through verse lead riff comes in

these are 15's and so on
e|-----------------------------------
B|-1515151515151515-1313131313131313-
g|-----------------------------------
d|-----------------------------------
a|-----------------------------------
E|-----------------------------------

e|-----------------------------------
B|-1212121212121212-1010101010101010-
g|-----------------------------------
d|-----------------------------------
a|-----------------------------------
E|-----------------------------------
[ Tab from: http://www.guitartabs.cc/tabs/f/flickerstick/smile_tab_ver_5.html ]
Strum Verse chords (one measure for each chord)
for part right before solo ("wohoo, oo oo...")

Strum Verse Chords (G and C) for the solo

Solo

e|------------------------------------
b|--12-10----10-12-10-------12-15-12--
g|--------12----------12-14-----------   
d|------------------------------------x3
a|------------------------------------
E|------------------------------------


e|-------12-15-12-------------------------------------
b|-12-15----------15-12-------------10-12p10-12p10-12-
g|----------------------14-12h14-12-------------------
d|----------------------------------------------------
a|----------------------------------------------------
E|----------------------------------------------------

e|------------------------------------
b|--12-10----10-12-10-------12-13-12--
g|--------12----------12-14-----------  
d|------------------------------------
a|------------------------------------
E|------------------------------------

e|------------------------------------
b|--12-10----10-12-10-------12-15-12--
g|--------12----------12-14-----------   
d|------------------------------------
a|------------------------------------
E|------------------------------------

e|------------------------------------
b|--12-10----10-12-10-------12-13-12--
g|--------12----------12-14-----------  
d|------------------------------------
a|------------------------------------
E|------------------------------------

e|-15----------------------------------   
b|----15/13-13-13-13p12-12p10----------   
g|----------------------------12-------   
d|-------------------------------------   
a|-------------------------------------   
E|-------------------------------------  

Cory takes a break while rex and brandin play G, Cadd9, then 
Em7(022033) one measure per chord just listen to the song its 
really easythey just strum those two chords for the rest of the 
song

then:

e|------------------------------------
b|--12-10----10-12-10-------12-13-12--
g|--------12----------12-14----------- 
d|------------------------------------
a|------------------------------------
E|------------------------------------

e|------------------------------------
b|--12-10----10-12-10-------12-15-12--
g|--------12----------12-14-----------  
d|------------------------------------
a|------------------------------------
E|------------------------------------

e|------------------------------------
b|--12-10----10-12-10-------12-13-12--
g|--------12----------12-14----------- 
d|------------------------------------
a|------------------------------------

e|-15---------------------------------  
b|----15/13-13-13-13p12-12p10---------   
g|----------------------------12------  
d|------------------------------------   
a|------------------------------------   
E|------------------------------------

e|------------------------------------
b|--12-10----10-12-10-------12-13-12--
g|--------12----------12-14----------- 
d|------------------------------------
a|------------------------------------
E|------------------------------------

e|------------------------------------
b|--12-10----10-12-10-------12-15-12--
g|--------12----------12-14-----------  
d|------------------------------------
a|------------------------------------
E|------------------------------------

e|------------------------------------
b|--12-10----10-12-10-------12-13-12--
g|--------12----------12-14----------- 
d|------------------------------------
a|------------------------------------

e|-15--------------------------------
b|----15-13-12----10-----------------
g|-------------12----12--------------
d|-----------------------------------
a|-----------------------------------
E|-----------------------------------
  
strum each verse chord once per measure after this 
ending on G

listen to the song the rythum part is easy
just keep strum the verse chords throughout

Enjoy.
Comments