Flickerstick - Hey Or When The Drugs Wear Off Chords & Tabs

 

Hey Or When The Drugs Wear Off Chords & Tabs

Flickerstick Chords & Tabs

Version: 1 Type: Tab 0 ratings
1 star 2 stars 3 stars 4 stars 5 stars
comments

Hey Or When The Drugs Wear Off Tab

Flickerstick - Hey Or When The Drugs Wear Off
Tabbed By: jordan
EMail: punkrockrlz@yahoo.com


I got these tabs from the flickerstick fans website 
(flickerstickfans.com)

anyone know the tabs to any something corporate songs?  
i have been trying to find them for a long time.  if so email me at
punkrockrlz@yahoo.com

Intro:

Riff1 (with distortion)
E------------------------------|
B------------------------------|
G---------5---------5----------| repeat 7 more times
D--3-3-3--5--3-3-3--5--3/5-5---|
A--3-3-3--3--3-3-3--3--3/5-5---|
E--1-1-1-----1-1-1-----1/3-3---|

Then...

E------------------------------|
B------------------------------|
G-5-----------5-5-5------------| 
D-5--5--7--8--5-5-5------------|
A-3--5--7--8--3-3-3------------|
E----3--5--6-------------------|

Play RIff 1 four times

"so take a breath, i know you're feeling jaded"
E---------|
B---------|
G--5------|
D--5------|
A--3------|
E---------|

Riff 2

"But I know the telephone would ring"
E------------------------------------------------------------------------|
B------------------------------------------------------------------------|
G-5-5-5-5-5-5-555--------------------------------------------------------| 
D-5-5-5-5-5-5-555--5-5-5-5-5-5-555-7-7-7-7-7-7-777--88888888-55555555----|
A-3-3-3-3-3-3-333--5-5-5-5-5-5-555-7-7-7-7-7-7-777--88888888-33333333----|
E------------------3-3-3-3-3-3-333-5-5-5-5-5-5-555--66666666-------------|

Play Riff 1 four times

"and when the drugs wear off"
E---------|
B---------|
G--5------|
D--5------|
A--3------|
E---------|

Play Riff 2 again

Play riff 1 four times
[ Tab from: http://www.guitartabs.cc/tabs/f/flickerstick/hey_or_when_the_drugs_wear_off_tab.html ]
"And now I know I've got the right idea"
E------------------------|
B------------------------|
G--5---------------------|
D--5----5----7----8------|
A--3----5----7----8------|
E-------3----5----6------|

"It's so amazing how the years seem shorter now"
E----------------------------------------|
B----------------------------------------|
G-5--------------------------------------|
D-5---5---7---8--0-8--0-8--0-8--0-888----|
A-3---5---7---8--0-8--0-8--0-8--0-888----|
E-----3---5---6--0-6--0-6--0-6--0-666----|

Play Riff 1 under the solo

Solo:

I can't really make out what Cory plays here but this is a close idea.  
Just play around with it.

E------------------------------------------------------------|
B---------------------------5-----------------5-6-5----------|
G---------5----------5--5-7------------5--5-7-------7-5-7-5--|
D-5-7-5-7---5-7--5-7-----------5-7-5-7---------------------7-|
A------------------------------------------------------------|
E------------------------------------------------------------|

E------------------------------------------------------------|
B---------------------------5-----------------5-6-5----------|
G---------5----------5--5-7------------5--5-7-------7-5------|
D-5-7-5-7---5-7--5-7-----------5-7-5-7-----------------------|
A------------------------------------------------------------|
E------------------------------------------------------------|

E--------------------------------------------|
B----5------5------5------5------------------|
G--7---7-5-7--7-5-7--7-5-7--7-5--------------|
D--------------------------------------------|
A--------------------------------------------|
E--------------------------------------------|
Comments