Flickerstick - Chloroform The One You Love Chords & Tabs

 

Chloroform The One You Love Chords & Tabs

Flickerstick Chords & Tabs

Version: 1 Type: Tab 0 ratings
1 star 2 stars 3 stars 4 stars 5 stars
comments

Chloroform The One You Love Tab

Intro/Verse

e|------------------------------------
b|------------------------------------
g|------------------------------------
D|----7-------------------------------
A|5-5---5------7--------9--------7----
E|---------5-5---5--7-7---7--5-5---5--

e|------------------------------------
b|------------------------------------
g|------------------------------------
D|----7-------------------------------
A|5-5---5------7--------9---9/8-8/7---
E|---------5-5---5--7-7---7-----------

pre-chorus (ah..ah.ah...ah.ahhhh) part

e|-----------5------------------------
b|-----5--7------7---5-7-5------------
g|7-----------------------------------
D|------------------------------------
A|------------------------------------
E|------------------------------------

Chorus

not sure what the chords are called so call them P1-4 :)

P1:x577

P2:577

P3:799

P4:688

P1      P2      P1  P2               P1
Chloroform the one, the one that you love
     P2       P3   P4  P2
and take her back

Bridge
[ Tab from: http://www.guitartabs.cc/tabs/f/flickerstick/chloroform_the_one_you_love_tab.html ]
Rythm:
 
 |      P1       |  P1  |  P3  |  P2  |         

Lead:

e|-------5-5-----|      |      |      |
b|7--7-----------|      |      |      |
g|-------------7-|      |      |      | 
D|---------------|repeat|repeat|repeat|
A|---------------|      |      |      |
E|---------------|      |      |      |

final verse
strum each chord a few times

P1
So just walk on by
P3          P2          P3         P2
I can see today is like any other day
P2
But it seems brighter than it was before
P1                             P3       P2
I just can't believe that it's not the same
        P3       P2
No it's not the same
P2                               P1 
It'll never be the same for me again

Rythm holds last chord while lead starts intro/verse

Outro

Chloroform the one, the one that you love (intro/verse)
and take her back

Chloroform...(pre-chorus)

Chloroform...(Chorus)

Chloroform...(chorus, slow way down for the last 3 chords)

well, that's that. I'm almost positive it's right, if not,
get over it and go else where.

PeACe...

questions, comments, corrections. Email me at
boc_5150@hotmail.com
Comments