Flickerstick - Beautiful Chords & Tabs

 

Beautiful Chords & Tabs

Flickerstick Chords & Tabs

Version: 6 Type: Tab 0 ratings
1 star 2 stars 3 stars 4 stars 5 stars
comments

Beautiful Tab

Intro: clean

E----------------------------------------------------------
A----------------------------------------------------------
D----------------------------------------------------------
G----------------------------------------------------------
B-9-9-9-9----------------9-9-9-9----------9-9-9-9-12-12-9--
E---------12-12-12-12-12--------9-9-9-9-9------------------

E----------------------------------------------------------
A----------------------------------------------------------
D----------------------------------------------------------
G-11-9-----------------------------------------------------
B----------------------------------------------------------
E----------------------------------------------------------
[ Tab from: http://www.guitartabs.cc/tabs/f/flickerstick/beautiful_tab_ver_6.html ]
Verses:Play throughout verses clean

E-x---x---0------------------------------------------------
A-4---2---0------------------------------------------------
D-6---2---2------------------------------------------------
G-6---4---2------------------------------------------------
B-7---4---2------------------------------------------------
E-4---2---0------------------------------------------------

Chorus:Distorted

E-x---x---0------------------------------------------------
A-4---2---0-----------------------------------------------
D-6---4---2------------------------------------------------
G-6---4---2------------------------------------------------
B-x---x---2------------------------------------------------
E-x---x---0------------------------------------------------
Comments