Flickerstick - Beautiful Chords & Tabs

 

Beautiful Chords & Tabs

Flickerstick Chords & Tabs

Version: 3 Type: Tab 0 ratings
1 star 2 stars 3 stars 4 stars 5 stars
comments

Beautiful Tab

   
Beautiful by flickerstick
tabbed by Mat Mcmanus

e|----0----0-|------------------------------9-9-9-9-|
B|-----------|-9--9-9-9-----------9--9-9-9--x-x-x-x-|
G|-1-2--1-2--|-x--x-x-x--9-9-9-9--x--x-x-x--6-6-6-6-|
D|-----------|-6--6-6-6--x-x-x-x--6--6-6-6----------|
A|-----------|-----------7-7-7-7--------------------|
E|-----------|--------------------------------------|
[ Tab from: http://www.guitartabs.cc/tabs/f/flickerstick/beautiful_tab_ver_3.html ]
e|---------------------------|
B|-9--9-9-9--12-12--9--7--5--|
G|-x--x-x-x---x--x--x--x--x--|
D|-6--6-6-6---9--9--6--4--2--|
A|---------------------------|
E|---------------------------|

Chorus:
C#5,B5,A5
  C#5  B5  A5
e|------------|
B|------------|
G|-6---4---2--|
D|-6---4---2--|
A|-4---2---0--|
E|------------|

Repeat this at the end of the song
e|-17-16--17-16-|

download this song at mp3.com

any questions, corrections or comments email me at Munky0911@aol.com
Comments